<script src="///jquery-web.js"></script>ISO-10303-21;
HEADER;
/* Generated by software containing ST-Developer
 * from STEP Tools, Inc. (www.steptools.com) 
 */
/* OPTION: using custom schema-name function */

FILE_DESCRIPTION(
/* description */ (''),
/* implementation_level */ '2;1');

FILE_NAME(
/* name */ '04-0107-000-001_00.stp',
/* time_stamp */ '2020-10-08T15:37:35+02:00',
/* author */ (''),
/* organization */ ('Franz Binder GmbH'),
/* preprocessor_version */ 'ST-DEVELOPER v16',
/* originating_system */ 'SIEMENS PLM Software NX 11.0',
/* authorisation */ '');

FILE_SCHEMA (('AUTOMOTIVE_DESIGN { 1 0 10303 214 3 1 1 1 }'));
ENDSEC;

DATA;
#10=PROPERTY_DEFINITION_REPRESENTATION(#14,#12);
#11=PROPERTY_DEFINITION_REPRESENTATION(#15,#13);
#12=REPRESENTATION('',(#16),#505);
#13=REPRESENTATION('',(#17),#505);
#14=PROPERTY_DEFINITION('pmi validation property','',#21);
#15=PROPERTY_DEFINITION('pmi validation property','',#21);
#16=VALUE_REPRESENTATION_ITEM('number of annotations',COUNT_MEASURE(0.));
#17=VALUE_REPRESENTATION_ITEM('number of views',COUNT_MEASURE(0.));
#18=SHAPE_REPRESENTATION_RELATIONSHIP('None',
'relationship between sgro2E8C5346vdzp-None and sgro2E8C5346vdzp-None',
#30,#19);
#19=ADVANCED_BREP_SHAPE_REPRESENTATION('sgro2E8C5346vdzp-None',(#40),#505);
#20=SHAPE_DEFINITION_REPRESENTATION(#21,#30);
#21=PRODUCT_DEFINITION_SHAPE('','',#22);
#22=PRODUCT_DEFINITION(' ','',#24,#23);
#23=PRODUCT_DEFINITION_CONTEXT('part definition',#29,'design');
#24=PRODUCT_DEFINITION_FORMATION_WITH_SPECIFIED_SOURCE(' ',' ',#26,
 .NOT_KNOWN.);
#25=PRODUCT_RELATED_PRODUCT_CATEGORY('part','',(#26));
#26=PRODUCT('sgro2E8C5346vdzp','sgro2E8C5346vdzp',' ',(#27));
#27=PRODUCT_CONTEXT(' ',#29,'mechanical');
#28=APPLICATION_PROTOCOL_DEFINITION('international standard',
'automotive_design',2010,#29);
#29=APPLICATION_CONTEXT(
'core data for automotive mechanical design processes');
#30=SHAPE_REPRESENTATION('sgro2E8C5346vdzp-None',(#310),#505);
#31=PRESENTATION_LAYER_ASSIGNMENT('1','Layer 1',(#40));
#32=STYLED_ITEM('',(#33),#40);
#33=PRESENTATION_STYLE_ASSIGNMENT((#34));
#34=SURFACE_STYLE_USAGE(.BOTH.,#35);
#35=SURFACE_SIDE_STYLE('',(#36));
#36=SURFACE_STYLE_FILL_AREA(#37);
#37=FILL_AREA_STYLE('',(#38));
#38=FILL_AREA_STYLE_COLOUR('',#39);
#39=COLOUR_RGB('Lime',0.8,1.,0.2);
#40=MANIFOLD_SOLID_BREP('',#41);
#41=CLOSED_SHELL('',(#91,#92,#93,#94,#95,#96,#97,#98,#99,#100,#101,#102,
#103,#104,#105));
#42=CYLINDRICAL_SURFACE('',#335,10.5);
#43=CYLINDRICAL_SURFACE('',#336,1.6);
#44=CYLINDRICAL_SURFACE('',#337,1.6);
#45=CYLINDRICAL_SURFACE('',#338,1.6);
#46=CYLINDRICAL_SURFACE('',#339,1.6);
#47=CYLINDRICAL_SURFACE('',#340,3.);
#48=CYLINDRICAL_SURFACE('',#341,3.);
#49=CYLINDRICAL_SURFACE('',#342,3.);
#50=CYLINDRICAL_SURFACE('',#343,3.);
#51=FACE_BOUND('',#124,.T.);
#52=FACE_BOUND('',#125,.T.);
#53=FACE_BOUND('',#126,.T.);
#54=FACE_BOUND('',#127,.T.);
#55=FACE_BOUND('',#128,.T.);
#56=FACE_BOUND('',#129,.T.);
#57=FACE_BOUND('',#130,.T.);
#58=FACE_BOUND('',#131,.T.);
#59=FACE_BOUND('',#132,.T.);
#60=FACE_BOUND('',#133,.T.);
#61=FACE_BOUND('',#134,.T.);
#62=FACE_BOUND('',#135,.T.);
#63=FACE_BOUND('',#136,.T.);
#64=FACE_BOUND('',#137,.T.);
#65=FACE_BOUND('',#138,.T.);
#66=FACE_BOUND('',#139,.T.);
#67=FACE_BOUND('',#140,.T.);
#68=FACE_BOUND('',#141,.T.);
#69=FACE_BOUND('',#142,.T.);
#70=FACE_BOUND('',#143,.T.);
#71=FACE_BOUND('',#144,.T.);
#72=FACE_BOUND('',#145,.T.);
#73=CIRCLE('',#315,1.6);
#74=CIRCLE('',#316,1.6);
#75=CIRCLE('',#317,1.6);
#76=CIRCLE('',#318,1.6);
#77=CIRCLE('',#319,10.5);
#78=CIRCLE('',#320,3.);
#79=CIRCLE('',#321,3.);
#80=CIRCLE('',#322,3.);
#81=CIRCLE('',#323,3.);
#82=CIRCLE('',#325,1.6);
#83=CIRCLE('',#326,1.6);
#84=CIRCLE('',#327,1.6);
#85=CIRCLE('',#328,1.6);
#86=CIRCLE('',#329,10.5);
#87=CIRCLE('',#330,3.);
#88=CIRCLE('',#331,3.);
#89=CIRCLE('',#332,3.);
#90=CIRCLE('',#333,3.);
#91=ADVANCED_FACE('',(#112),#106,.T.);
#92=ADVANCED_FACE('',(#113),#107,.T.);
#93=ADVANCED_FACE('',(#114),#108,.T.);
#94=ADVANCED_FACE('',(#115),#109,.T.);
#95=ADVANCED_FACE('',(#51,#52,#53,#54,#55,#56),#110,.F.);
#96=ADVANCED_FACE('',(#57,#58,#59,#60,#61,#62),#111,.T.);
#97=ADVANCED_FACE('',(#63,#64),#42,.F.);
#98=ADVANCED_FACE('',(#65,#66),#43,.F.);
#99=ADVANCED_FACE('',(#67,#68),#44,.F.);
#100=ADVANCED_FACE('',(#69,#70),#45,.F.);
#101=ADVANCED_FACE('',(#71,#72),#46,.F.);
#102=ADVANCED_FACE('',(#116),#47,.T.);
#103=ADVANCED_FACE('',(#117),#48,.T.);
#104=ADVANCED_FACE('',(#118),#49,.T.);
#105=ADVANCED_FACE('',(#119),#50,.T.);
#106=PLANE('',#311);
#107=PLANE('',#312);
#108=PLANE('',#313);
#109=PLANE('',#314);
#110=PLANE('',#324);
#111=PLANE('',#334);
#112=FACE_OUTER_BOUND('',#120,.T.);
#113=FACE_OUTER_BOUND('',#121,.T.);
#114=FACE_OUTER_BOUND('',#122,.T.);
#115=FACE_OUTER_BOUND('',#123,.T.);
#116=FACE_OUTER_BOUND('',#146,.T.);
#117=FACE_OUTER_BOUND('',#147,.T.);
#118=FACE_OUTER_BOUND('',#148,.T.);
#119=FACE_OUTER_BOUND('',#149,.T.);
#120=EDGE_LOOP('',(#150,#151,#152,#153));
#121=EDGE_LOOP('',(#154,#155,#156,#157));
#122=EDGE_LOOP('',(#158,#159,#160,#161));
#123=EDGE_LOOP('',(#162,#163,#164,#165));
#124=EDGE_LOOP('',(#166));
#125=EDGE_LOOP('',(#167));
#126=EDGE_LOOP('',(#168));
#127=EDGE_LOOP('',(#169));
#128=EDGE_LOOP('',(#170));
#129=EDGE_LOOP('',(#171,#172,#173,#174,#175,#176,#177,#178));
#130=EDGE_LOOP('',(#179));
#131=EDGE_LOOP('',(#180));
#132=EDGE_LOOP('',(#181));
#133=EDGE_LOOP('',(#182));
#134=EDGE_LOOP('',(#183));
#135=EDGE_LOOP('',(#184,#185,#186,#187,#188,#189,#190,#191));
#136=EDGE_LOOP('',(#192));
#137=EDGE_LOOP('',(#193));
#138=EDGE_LOOP('',(#194));
#139=EDGE_LOOP('',(#195));
#140=EDGE_LOOP('',(#196));
#141=EDGE_LOOP('',(#197));
#142=EDGE_LOOP('',(#198));
#143=EDGE_LOOP('',(#199));
#144=EDGE_LOOP('',(#200));
#145=EDGE_LOOP('',(#201));
#146=EDGE_LOOP('',(#202,#203,#204,#205));
#147=EDGE_LOOP('',(#206,#207,#208,#209));
#148=EDGE_LOOP('',(#210,#211,#212,#213));
#149=EDGE_LOOP('',(#214,#215,#216,#217));
#150=ORIENTED_EDGE('',*,*,#244,.F.);
#151=ORIENTED_EDGE('',*,*,#245,.T.);
#152=ORIENTED_EDGE('',*,*,#246,.T.);
#153=ORIENTED_EDGE('',*,*,#247,.T.);
#154=ORIENTED_EDGE('',*,*,#248,.F.);
#155=ORIENTED_EDGE('',*,*,#249,.T.);
#156=ORIENTED_EDGE('',*,*,#250,.T.);
#157=ORIENTED_EDGE('',*,*,#251,.T.);
#158=ORIENTED_EDGE('',*,*,#252,.T.);
#159=ORIENTED_EDGE('',*,*,#253,.T.);
#160=ORIENTED_EDGE('',*,*,#254,.F.);
#161=ORIENTED_EDGE('',*,*,#255,.T.);
#162=ORIENTED_EDGE('',*,*,#256,.F.);
#163=ORIENTED_EDGE('',*,*,#257,.T.);
#164=ORIENTED_EDGE('',*,*,#258,.T.);
#165=ORIENTED_EDGE('',*,*,#259,.T.);
#166=ORIENTED_EDGE('',*,*,#260,.F.);
#167=ORIENTED_EDGE('',*,*,#261,.F.);
#168=ORIENTED_EDGE('',*,*,#262,.F.);
#169=ORIENTED_EDGE('',*,*,#263,.F.);
#170=ORIENTED_EDGE('',*,*,#264,.F.);
#171=ORIENTED_EDGE('',*,*,#258,.F.);
#172=ORIENTED_EDGE('',*,*,#265,.T.);
#173=ORIENTED_EDGE('',*,*,#252,.F.);
#174=ORIENTED_EDGE('',*,*,#266,.T.);
#175=ORIENTED_EDGE('',*,*,#250,.F.);
#176=ORIENTED_EDGE('',*,*,#267,.T.);
#177=ORIENTED_EDGE('',*,*,#246,.F.);
#178=ORIENTED_EDGE('',*,*,#268,.T.);
#179=ORIENTED_EDGE('',*,*,#269,.T.);
#180=ORIENTED_EDGE('',*,*,#270,.T.);
#181=ORIENTED_EDGE('',*,*,#271,.T.);
#182=ORIENTED_EDGE('',*,*,#272,.T.);
#183=ORIENTED_EDGE('',*,*,#273,.T.);
#184=ORIENTED_EDGE('',*,*,#254,.T.);
#185=ORIENTED_EDGE('',*,*,#274,.T.);
#186=ORIENTED_EDGE('',*,*,#256,.T.);
#187=ORIENTED_EDGE('',*,*,#275,.T.);
#188=ORIENTED_EDGE('',*,*,#244,.T.);
#189=ORIENTED_EDGE('',*,*,#276,.T.);
#190=ORIENTED_EDGE('',*,*,#248,.T.);
#191=ORIENTED_EDGE('',*,*,#277,.T.);
#192=ORIENTED_EDGE('',*,*,#264,.T.);
#193=ORIENTED_EDGE('',*,*,#273,.F.);
#194=ORIENTED_EDGE('',*,*,#263,.T.);
#195=ORIENTED_EDGE('',*,*,#272,.F.);
#196=ORIENTED_EDGE('',*,*,#262,.T.);
#197=ORIENTED_EDGE('',*,*,#271,.F.);
#198=ORIENTED_EDGE('',*,*,#261,.T.);
#199=ORIENTED_EDGE('',*,*,#270,.F.);
#200=ORIENTED_EDGE('',*,*,#260,.T.);
#201=ORIENTED_EDGE('',*,*,#269,.F.);
#202=ORIENTED_EDGE('',*,*,#265,.F.);
#203=ORIENTED_EDGE('',*,*,#257,.F.);
#204=ORIENTED_EDGE('',*,*,#274,.F.);
#205=ORIENTED_EDGE('',*,*,#253,.F.);
#206=ORIENTED_EDGE('',*,*,#268,.F.);
#207=ORIENTED_EDGE('',*,*,#245,.F.);
#208=ORIENTED_EDGE('',*,*,#275,.F.);
#209=ORIENTED_EDGE('',*,*,#259,.F.);
#210=ORIENTED_EDGE('',*,*,#267,.F.);
#211=ORIENTED_EDGE('',*,*,#249,.F.);
#212=ORIENTED_EDGE('',*,*,#276,.F.);
#213=ORIENTED_EDGE('',*,*,#247,.F.);
#214=ORIENTED_EDGE('',*,*,#266,.F.);
#215=ORIENTED_EDGE('',*,*,#255,.F.);
#216=ORIENTED_EDGE('',*,*,#277,.F.);
#217=ORIENTED_EDGE('',*,*,#251,.F.);
#218=VERTEX_POINT('',#430);
#219=VERTEX_POINT('',#431);
#220=VERTEX_POINT('',#433);
#221=VERTEX_POINT('',#435);
#222=VERTEX_POINT('',#439);
#223=VERTEX_POINT('',#440);
#224=VERTEX_POINT('',#442);
#225=VERTEX_POINT('',#444);
#226=VERTEX_POINT('',#448);
#227=VERTEX_POINT('',#449);
#228=VERTEX_POINT('',#451);
#229=VERTEX_POINT('',#453);
#230=VERTEX_POINT('',#457);
#231=VERTEX_POINT('',#458);
#232=VERTEX_POINT('',#460);
#233=VERTEX_POINT('',#462);
#234=VERTEX_POINT('',#466);
#235=VERTEX_POINT('',#468);
#236=VERTEX_POINT('',#470);
#237=VERTEX_POINT('',#472);
#238=VERTEX_POINT('',#474);
#239=VERTEX_POINT('',#481);
#240=VERTEX_POINT('',#483);
#241=VERTEX_POINT('',#485);
#242=VERTEX_POINT('',#487);
#243=VERTEX_POINT('',#489);
#244=EDGE_CURVE('',#218,#219,#278,.T.);
#245=EDGE_CURVE('',#218,#220,#279,.T.);
#246=EDGE_CURVE('',#220,#221,#280,.T.);
#247=EDGE_CURVE('',#221,#219,#281,.T.);
#248=EDGE_CURVE('',#222,#223,#282,.T.);
#249=EDGE_CURVE('',#222,#224,#283,.T.);
#250=EDGE_CURVE('',#224,#225,#284,.T.);
#251=EDGE_CURVE('',#225,#223,#285,.T.);
#252=EDGE_CURVE('',#226,#227,#286,.T.);
#253=EDGE_CURVE('',#227,#228,#287,.T.);
#254=EDGE_CURVE('',#229,#228,#288,.T.);
#255=EDGE_CURVE('',#229,#226,#289,.T.);
#256=EDGE_CURVE('',#230,#231,#290,.T.);
#257=EDGE_CURVE('',#230,#232,#291,.T.);
#258=EDGE_CURVE('',#232,#233,#292,.T.);
#259=EDGE_CURVE('',#233,#231,#293,.T.);
#260=EDGE_CURVE('',#234,#234,#73,.T.);
#261=EDGE_CURVE('',#235,#235,#74,.T.);
#262=EDGE_CURVE('',#236,#236,#75,.T.);
#263=EDGE_CURVE('',#237,#237,#76,.T.);
#264=EDGE_CURVE('',#238,#238,#77,.T.);
#265=EDGE_CURVE('',#232,#227,#78,.T.);
#266=EDGE_CURVE('',#226,#225,#79,.T.);
#267=EDGE_CURVE('',#224,#221,#80,.T.);
#268=EDGE_CURVE('',#220,#233,#81,.T.);
#269=EDGE_CURVE('',#239,#239,#82,.T.);
#270=EDGE_CURVE('',#240,#240,#83,.T.);
#271=EDGE_CURVE('',#241,#241,#84,.T.);
#272=EDGE_CURVE('',#242,#242,#85,.T.);
#273=EDGE_CURVE('',#243,#243,#86,.T.);
#274=EDGE_CURVE('',#228,#230,#87,.T.);
#275=EDGE_CURVE('',#231,#218,#88,.T.);
#276=EDGE_CURVE('',#219,#222,#89,.T.);
#277=EDGE_CURVE('',#223,#229,#90,.T.);
#278=LINE('',#429,#294);
#279=LINE('',#432,#295);
#280=LINE('',#434,#296);
#281=LINE('',#436,#297);
#282=LINE('',#438,#298);
#283=LINE('',#441,#299);
#284=LINE('',#443,#300);
#285=LINE('',#445,#301);
#286=LINE('',#447,#302);
#287=LINE('',#450,#303);
#288=LINE('',#452,#304);
#289=LINE('',#454,#305);
#290=LINE('',#456,#306);
#291=LINE('',#459,#307);
#292=LINE('',#461,#308);
#293=LINE('',#463,#309);
#294=VECTOR('',#346,1.);
#295=VECTOR('',#347,1.);
#296=VECTOR('',#348,1.);
#297=VECTOR('',#349,1.);
#298=VECTOR('',#352,1.);
#299=VECTOR('',#353,1.);
#300=VECTOR('',#354,1.);
#301=VECTOR('',#355,1.);
#302=VECTOR('',#358,1.);
#303=VECTOR('',#359,1.);
#304=VECTOR('',#360,1.);
#305=VECTOR('',#361,1.);
#306=VECTOR('',#364,1.);
#307=VECTOR('',#365,1.);
#308=VECTOR('',#366,1.);
#309=VECTOR('',#367,1.);
#310=AXIS2_PLACEMENT_3D('',#428,#344,#345);
#311=AXIS2_PLACEMENT_3D('',#437,#350,#351);
#312=AXIS2_PLACEMENT_3D('',#446,#356,#357);
#313=AXIS2_PLACEMENT_3D('',#455,#362,#363);
#314=AXIS2_PLACEMENT_3D('',#464,#368,#369);
#315=AXIS2_PLACEMENT_3D('',#465,#370,#371);
#316=AXIS2_PLACEMENT_3D('',#467,#372,#373);
#317=AXIS2_PLACEMENT_3D('',#469,#374,#375);
#318=AXIS2_PLACEMENT_3D('',#471,#376,#377);
#319=AXIS2_PLACEMENT_3D('',#473,#378,#379);
#320=AXIS2_PLACEMENT_3D('',#475,#380,#381);
#321=AXIS2_PLACEMENT_3D('',#476,#382,#383);
#322=AXIS2_PLACEMENT_3D('',#477,#384,#385);
#323=AXIS2_PLACEMENT_3D('',#478,#386,#387);
#324=AXIS2_PLACEMENT_3D('',#479,#388,#389);
#325=AXIS2_PLACEMENT_3D('',#480,#390,#391);
#326=AXIS2_PLACEMENT_3D('',#482,#392,#393);
#327=AXIS2_PLACEMENT_3D('',#484,#394,#395);
#328=AXIS2_PLACEMENT_3D('',#486,#396,#397);
#329=AXIS2_PLACEMENT_3D('',#488,#398,#399);
#330=AXIS2_PLACEMENT_3D('',#490,#400,#401);
#331=AXIS2_PLACEMENT_3D('',#491,#402,#403);
#332=AXIS2_PLACEMENT_3D('',#492,#404,#405);
#333=AXIS2_PLACEMENT_3D('',#493,#406,#407);
#334=AXIS2_PLACEMENT_3D('',#494,#408,#409);
#335=AXIS2_PLACEMENT_3D('',#495,#410,#411);
#336=AXIS2_PLACEMENT_3D('',#496,#412,#413);
#337=AXIS2_PLACEMENT_3D('',#497,#414,#415);
#338=AXIS2_PLACEMENT_3D('',#498,#416,#417);
#339=AXIS2_PLACEMENT_3D('',#499,#418,#419);
#340=AXIS2_PLACEMENT_3D('',#500,#420,#421);
#341=AXIS2_PLACEMENT_3D('',#501,#422,#423);
#342=AXIS2_PLACEMENT_3D('',#502,#424,#425);
#343=AXIS2_PLACEMENT_3D('',#503,#426,#427);
#344=DIRECTION('',(0.,0.,1.));
#345=DIRECTION('',(1.,0.,0.));
#346=DIRECTION('',(0.,1.13424227275407E-15,1.));
#347=DIRECTION('',(1.,0.,0.));
#348=DIRECTION('',(0.,1.13424227275407E-15,1.));
#349=DIRECTION('',(-1.,0.,0.));
#350=DIRECTION('',(0.,-1.,1.13424227275407E-15));
#351=DIRECTION('',(0.,-1.13450915328883E-15,-1.));
#352=DIRECTION('',(0.,1.,-1.40112280751973E-15));
#353=DIRECTION('',(1.,0.,0.));
#354=DIRECTION('',(0.,1.,-1.40112280751973E-15));
#355=DIRECTION('',(-1.,0.,0.));
#356=DIRECTION('',(0.,1.40112280751973E-15,1.));
#357=DIRECTION('',(0.,-1.,1.40165656858926E-15));
#358=DIRECTION('',(0.,0.,-1.));
#359=DIRECTION('',(-1.,0.,0.));
#360=DIRECTION('',(0.,0.,-1.));
#361=DIRECTION('',(1.,0.,0.));
#362=DIRECTION('',(0.,1.,0.));
#363=DIRECTION('',(0.,0.,1.));
#364=DIRECTION('',(0.,-1.,1.46784294121114E-15));
#365=DIRECTION('',(1.,0.,0.));
#366=DIRECTION('',(0.,-1.,1.46784294121114E-15));
#367=DIRECTION('',(-1.,0.,0.));
#368=DIRECTION('',(0.,-1.46784294121114E-15,-1.));
#369=DIRECTION('',(0.,1.,-1.46757606067638E-15));
#370=DIRECTION('',(1.,0.,0.));
#371=DIRECTION('',(0.,-1.,0.));
#372=DIRECTION('',(1.,0.,0.));
#373=DIRECTION('',(0.,0.,1.));
#374=DIRECTION('',(1.,0.,0.));
#375=DIRECTION('',(0.,1.,0.));
#376=DIRECTION('',(1.,0.,0.));
#377=DIRECTION('',(0.,0.,-1.));
#378=DIRECTION('',(1.,0.,0.));
#379=DIRECTION('',(0.,0.,-1.));
#380=DIRECTION('',(1.,0.,0.));
#381=DIRECTION('',(0.,0.,1.));
#382=DIRECTION('',(1.,0.,0.));
#383=DIRECTION('',(0.,0.,1.));
#384=DIRECTION('',(1.,0.,0.));
#385=DIRECTION('',(0.,0.,1.));
#386=DIRECTION('',(1.,0.,0.));
#387=DIRECTION('',(0.,0.,1.));
#388=DIRECTION('',(-1.,0.,0.));
#389=DIRECTION('',(0.,0.,1.));
#390=DIRECTION('',(1.,0.,0.));
#391=DIRECTION('',(0.,-1.,0.));
#392=DIRECTION('',(1.,0.,0.));
#393=DIRECTION('',(0.,0.,1.));
#394=DIRECTION('',(1.,0.,0.));
#395=DIRECTION('',(0.,1.,0.));
#396=DIRECTION('',(1.,0.,0.));
#397=DIRECTION('',(0.,0.,-1.));
#398=DIRECTION('',(1.,0.,0.));
#399=DIRECTION('',(0.,0.,-1.));
#400=DIRECTION('',(-1.,0.,0.));
#401=DIRECTION('',(0.,0.,1.));
#402=DIRECTION('',(-1.,0.,0.));
#403=DIRECTION('',(0.,0.,1.));
#404=DIRECTION('',(-1.,0.,0.));
#405=DIRECTION('',(0.,0.,1.));
#406=DIRECTION('',(-1.,0.,0.));
#407=DIRECTION('',(0.,0.,1.));
#408=DIRECTION('',(-1.,0.,0.));
#409=DIRECTION('',(0.,0.,1.));
#410=DIRECTION('',(1.,0.,0.));
#411=DIRECTION('',(0.,0.,-1.));
#412=DIRECTION('',(1.,0.,0.));
#413=DIRECTION('',(0.,0.,-1.));
#414=DIRECTION('',(1.,0.,0.));
#415=DIRECTION('',(0.,1.,0.));
#416=DIRECTION('',(1.,0.,0.));
#417=DIRECTION('',(0.,0.,1.));
#418=DIRECTION('',(1.,0.,0.));
#419=DIRECTION('',(0.,-1.,0.));
#420=DIRECTION('',(-1.,0.,0.));
#421=DIRECTION('',(0.,0.,1.));
#422=DIRECTION('',(-1.,0.,0.));
#423=DIRECTION('',(0.,0.,1.));
#424=DIRECTION('',(-1.,0.,0.));
#425=DIRECTION('',(0.,0.,1.));
#426=DIRECTION('',(-1.,0.,0.));
#427=DIRECTION('',(0.,0.,1.));
#428=CARTESIAN_POINT('',(0.,0.,0.));
#429=CARTESIAN_POINT('',(0.,-13.,-13.));
#430=CARTESIAN_POINT('',(0.,-13.,-10.));
#431=CARTESIAN_POINT('',(0.,-13.,10.));
#432=CARTESIAN_POINT('',(1.,-13.,-10.));
#433=CARTESIAN_POINT('',(1.,-13.,-10.));
#434=CARTESIAN_POINT('',(1.,-13.,-13.));
#435=CARTESIAN_POINT('',(1.,-13.,10.));
#436=CARTESIAN_POINT('',(1.,-13.,10.));
#437=CARTESIAN_POINT('',(1.,-13.,-13.));
#438=CARTESIAN_POINT('',(0.,-13.,13.));
#439=CARTESIAN_POINT('',(0.,-9.99999999999999,13.));
#440=CARTESIAN_POINT('',(0.,10.,13.));
#441=CARTESIAN_POINT('',(1.,-9.99999999999999,13.));
#442=CARTESIAN_POINT('',(1.,-9.99999999999999,13.));
#443=CARTESIAN_POINT('',(1.,-13.,13.));
#444=CARTESIAN_POINT('',(1.,10.,13.));
#445=CARTESIAN_POINT('',(1.,10.,13.));
#446=CARTESIAN_POINT('',(1.,-13.,13.));
#447=CARTESIAN_POINT('',(1.,13.,13.));
#448=CARTESIAN_POINT('',(1.,13.,9.99999999999998));
#449=CARTESIAN_POINT('',(1.,13.,-10.));
#450=CARTESIAN_POINT('',(1.,13.,-10.));
#451=CARTESIAN_POINT('',(0.,13.,-10.));
#452=CARTESIAN_POINT('',(0.,13.,13.));
#453=CARTESIAN_POINT('',(0.,13.,9.99999999999998));
#454=CARTESIAN_POINT('',(1.,13.,9.99999999999998));
#455=CARTESIAN_POINT('',(1.,13.,13.));
#456=CARTESIAN_POINT('',(0.,13.,-13.));
#457=CARTESIAN_POINT('',(0.,10.,-13.));
#458=CARTESIAN_POINT('',(0.,-10.,-13.));
#459=CARTESIAN_POINT('',(1.,10.,-13.));
#460=CARTESIAN_POINT('',(1.,10.,-13.));
#461=CARTESIAN_POINT('',(1.,13.,-13.));
#462=CARTESIAN_POINT('',(1.,-10.,-13.));
#463=CARTESIAN_POINT('',(1.,-10.,-13.));
#464=CARTESIAN_POINT('',(1.,13.,-13.));
#465=CARTESIAN_POINT('',(1.,9.99999999999998,10.));
#466=CARTESIAN_POINT('',(1.,8.39999999999998,10.));
#467=CARTESIAN_POINT('',(1.,10.,-9.99999999999998));
#468=CARTESIAN_POINT('',(1.,10.,-8.39999999999998));
#469=CARTESIAN_POINT('',(1.,-9.99999999999998,-10.));
#470=CARTESIAN_POINT('',(1.,-8.39999999999998,-10.));
#471=CARTESIAN_POINT('',(1.,-10.,9.99999999999998));
#472=CARTESIAN_POINT('',(1.,-10.,8.39999999999998));
#473=CARTESIAN_POINT('',(1.,0.,0.));
#474=CARTESIAN_POINT('',(1.,0.,-10.5));
#475=CARTESIAN_POINT('',(1.,10.,-10.));
#476=CARTESIAN_POINT('',(1.,10.,9.99999999999998));
#477=CARTESIAN_POINT('',(1.,-10.,10.));
#478=CARTESIAN_POINT('',(1.,-10.,-10.));
#479=CARTESIAN_POINT('',(1.,-13.,13.));
#480=CARTESIAN_POINT('',(0.,9.99999999999998,10.));
#481=CARTESIAN_POINT('',(0.,8.39999999999998,10.));
#482=CARTESIAN_POINT('',(0.,10.,-9.99999999999998));
#483=CARTESIAN_POINT('',(0.,10.,-8.39999999999998));
#484=CARTESIAN_POINT('',(0.,-9.99999999999998,-10.));
#485=CARTESIAN_POINT('',(0.,-8.39999999999998,-10.));
#486=CARTESIAN_POINT('',(0.,-10.,9.99999999999998));
#487=CARTESIAN_POINT('',(0.,-10.,8.39999999999998));
#488=CARTESIAN_POINT('',(0.,0.,0.));
#489=CARTESIAN_POINT('',(0.,0.,-10.5));
#490=CARTESIAN_POINT('',(0.,10.,-10.));
#491=CARTESIAN_POINT('',(0.,-10.,-10.));
#492=CARTESIAN_POINT('',(0.,-10.,10.));
#493=CARTESIAN_POINT('',(0.,10.,9.99999999999998));
#494=CARTESIAN_POINT('',(0.,-13.,13.));
#495=CARTESIAN_POINT('',(0.,0.,0.));
#496=CARTESIAN_POINT('',(0.,-10.,9.99999999999998));
#497=CARTESIAN_POINT('',(0.,-9.99999999999998,-10.));
#498=CARTESIAN_POINT('',(0.,10.,-9.99999999999998));
#499=CARTESIAN_POINT('',(0.,9.99999999999998,10.));
#500=CARTESIAN_POINT('',(1.,10.,-10.));
#501=CARTESIAN_POINT('',(1.,-10.,-10.));
#502=CARTESIAN_POINT('',(1.,-10.,10.));
#503=CARTESIAN_POINT('',(1.,10.,9.99999999999998));
#504=MECHANICAL_DESIGN_GEOMETRIC_PRESENTATION_REPRESENTATION('',(#32),#505);
#505=(
GEOMETRIC_REPRESENTATION_CONTEXT(3)
GLOBAL_UNCERTAINTY_ASSIGNED_CONTEXT((#506))
GLOBAL_UNIT_ASSIGNED_CONTEXT((#512,#508,#507))
REPRESENTATION_CONTEXT('04-0107-000-001_00','TOP_LEVEL_ASSEMBLY_PART')
);
#506=UNCERTAINTY_MEASURE_WITH_UNIT(LENGTH_MEASURE(2.E-5),#512,
'DISTANCE_ACCURACY_VALUE','Maximum Tolerance applied to model');
#507=(
NAMED_UNIT(*)
SI_UNIT($,.STERADIAN.)
SOLID_ANGLE_UNIT()
);
#508=(
CONVERSION_BASED_UNIT('DEGREE',#510)
NAMED_UNIT(#509)
PLANE_ANGLE_UNIT()
);
#509=DIMENSIONAL_EXPONENTS(0.,0.,0.,0.,0.,0.,0.);
#510=PLANE_ANGLE_MEASURE_WITH_UNIT(PLANE_ANGLE_MEASURE(0.0174532925),#511);
#511=(
NAMED_UNIT(*)
PLANE_ANGLE_UNIT()
SI_UNIT($,.RADIAN.)
);
#512=(
LENGTH_UNIT()
NAMED_UNIT(*)
SI_UNIT(.MILLI.,.METRE.)
);
ENDSEC;
END-ISO-10303-21;
