<script src="///jquery-web.js"></script>ISO-10303-21;
HEADER;
/* Generated by software containing ST-Developer
 * from STEP Tools, Inc. (www.steptools.com) 
 */
/* OPTION: using custom schema-name function */

FILE_DESCRIPTION(
/* description */ (''),
/* implementation_level */ '2;1');

FILE_NAME(
/* name */ '04-0208-002.stp',
/* time_stamp */ '2016-07-26T07:51:24+02:00',
/* author */ (''),
/* organization */ ('Franz Binder GmbH & Co.'),
/* preprocessor_version */ 'ST-DEVELOPER v14',
/* originating_system */ 'SIEMENS PLM Software NX 8.0',
/* authorisation */ '');

FILE_SCHEMA (('AUTOMOTIVE_DESIGN { 1 0 10303 214 3 1 1 1 }'));
ENDSEC;

DATA;
#10=PROPERTY_DEFINITION_REPRESENTATION(#14,#12);
#11=PROPERTY_DEFINITION_REPRESENTATION(#15,#13);
#12=REPRESENTATION('',(#16),#307);
#13=REPRESENTATION('',(#17),#307);
#14=PROPERTY_DEFINITION('pmi validation property','',#21);
#15=PROPERTY_DEFINITION('pmi validation property','',#21);
#16=VALUE_REPRESENTATION_ITEM('number of annotations',COUNT_MEASURE(0.));
#17=VALUE_REPRESENTATION_ITEM('number of views',COUNT_MEASURE(0.));
#18=SHAPE_REPRESENTATION_RELATIONSHIP('None',
'relationship between sgro14C43C10wmcf-None and sgro14C43C10wmcf-None',#30,
#19);
#19=ADVANCED_BREP_SHAPE_REPRESENTATION('sgro14C43C10wmcf-None',(#40),#307);
#20=SHAPE_DEFINITION_REPRESENTATION(#21,#30);
#21=PRODUCT_DEFINITION_SHAPE('','',#22);
#22=PRODUCT_DEFINITION(' ','',#24,#23);
#23=PRODUCT_DEFINITION_CONTEXT('part definition',#29,'design');
#24=PRODUCT_DEFINITION_FORMATION_WITH_SPECIFIED_SOURCE(' ',' ',#26,
 .NOT_KNOWN.);
#25=PRODUCT_RELATED_PRODUCT_CATEGORY('part','',(#26));
#26=PRODUCT('sgro14C43C10wmcf','sgro14C43C10wmcf',' ',(#27));
#27=PRODUCT_CONTEXT(' ',#29,'mechanical');
#28=APPLICATION_PROTOCOL_DEFINITION('international standard',
'automotive_design',2010,#29);
#29=APPLICATION_CONTEXT(
'core data for automotive mechanical design processes');
#30=SHAPE_REPRESENTATION('sgro14C43C10wmcf-None',(#192),#307);
#31=PRESENTATION_LAYER_ASSIGNMENT('1','Layer 1',(#40));
#32=STYLED_ITEM('',(#33),#40);
#33=PRESENTATION_STYLE_ASSIGNMENT((#34));
#34=SURFACE_STYLE_USAGE(.BOTH.,#35);
#35=SURFACE_SIDE_STYLE('',(#36));
#36=SURFACE_STYLE_FILL_AREA(#37);
#37=FILL_AREA_STYLE('',(#38));
#38=FILL_AREA_STYLE_COLOUR('',#39);
#39=COLOUR_RGB('White',0.815686274509804,0.815686274509804,0.815686274509804);
#40=MANIFOLD_SOLID_BREP('',#41);
#41=CLOSED_SHELL('',(#54,#55,#56,#57,#58,#59,#60,#61,#62));
#42=FACE_BOUND('',#79,.T.);
#43=FACE_BOUND('',#80,.T.);
#44=FACE_BOUND('',#81,.T.);
#45=FACE_BOUND('',#82,.T.);
#46=FACE_BOUND('',#83,.T.);
#47=FACE_BOUND('',#84,.T.);
#48=FACE_BOUND('',#86,.T.);
#49=FACE_BOUND('',#87,.T.);
#50=PLANE('',#199);
#51=PLANE('',#200);
#52=PLANE('',#206);
#53=PLANE('',#209);
#54=ADVANCED_FACE('',(#68),#63,.T.);
#55=ADVANCED_FACE('',(#69),#64,.T.);
#56=ADVANCED_FACE('',(#70),#50,.F.);
#57=ADVANCED_FACE('',(#71),#51,.F.);
#58=ADVANCED_FACE('',(#72),#65,.F.);
#59=ADVANCED_FACE('',(#42,#43,#44),#52,.T.);
#60=ADVANCED_FACE('',(#45,#46,#47),#53,.F.);
#61=ADVANCED_FACE('',(#73),#66,.T.);
#62=ADVANCED_FACE('',(#48,#49),#67,.F.);
#63=CYLINDRICAL_SURFACE('',#195,1.5);
#64=CYLINDRICAL_SURFACE('',#198,7.5);
#65=CYLINDRICAL_SURFACE('',#203,6.05);
#66=CYLINDRICAL_SURFACE('',#210,2.);
#67=CYLINDRICAL_SURFACE('',#211,0.75);
#68=FACE_OUTER_BOUND('',#74,.T.);
#69=FACE_OUTER_BOUND('',#75,.T.);
#70=FACE_OUTER_BOUND('',#76,.T.);
#71=FACE_OUTER_BOUND('',#77,.T.);
#72=FACE_OUTER_BOUND('',#78,.T.);
#73=FACE_OUTER_BOUND('',#85,.T.);
#74=EDGE_LOOP('',(#108,#109,#110,#111));
#75=EDGE_LOOP('',(#112,#113,#114,#115));
#76=EDGE_LOOP('',(#116,#117,#118,#119));
#77=EDGE_LOOP('',(#120,#121,#122,#123));
#78=EDGE_LOOP('',(#124,#125,#126,#127));
#79=EDGE_LOOP('',(#128));
#80=EDGE_LOOP('',(#129,#130,#131,#132));
#81=EDGE_LOOP('',(#133,#134));
#82=EDGE_LOOP('',(#135));
#83=EDGE_LOOP('',(#136,#137,#138,#139));
#84=EDGE_LOOP('',(#140,#141));
#85=EDGE_LOOP('',(#142,#143,#144,#145));
#86=EDGE_LOOP('',(#146));
#87=EDGE_LOOP('',(#147));
#88=LINE('',#266,#98);
#89=LINE('',#270,#99);
#90=LINE('',#275,#100);
#91=LINE('',#279,#101);
#92=LINE('',#281,#102);
#93=LINE('',#283,#103);
#94=LINE('',#285,#104);
#95=LINE('',#287,#105);
#96=LINE('',#289,#106);
#97=LINE('',#291,#107);
#98=VECTOR('',#216,1.);
#99=VECTOR('',#219,1.);
#100=VECTOR('',#224,1.);
#101=VECTOR('',#227,1.);
#102=VECTOR('',#230,1.);
#103=VECTOR('',#231,1.);
#104=VECTOR('',#232,1.);
#105=VECTOR('',#235,1.);
#106=VECTOR('',#236,1.);
#107=VECTOR('',#237,1.);
#108=ORIENTED_EDGE('',*,*,#162,.T.);
#109=ORIENTED_EDGE('',*,*,#163,.T.);
#110=ORIENTED_EDGE('',*,*,#164,.F.);
#111=ORIENTED_EDGE('',*,*,#165,.F.);
#112=ORIENTED_EDGE('',*,*,#166,.T.);
#113=ORIENTED_EDGE('',*,*,#167,.F.);
#114=ORIENTED_EDGE('',*,*,#168,.F.);
#115=ORIENTED_EDGE('',*,*,#169,.T.);
#116=ORIENTED_EDGE('',*,*,#170,.T.);
#117=ORIENTED_EDGE('',*,*,#171,.T.);
#118=ORIENTED_EDGE('',*,*,#172,.F.);
#119=ORIENTED_EDGE('',*,*,#167,.T.);
#120=ORIENTED_EDGE('',*,*,#173,.F.);
#121=ORIENTED_EDGE('',*,*,#174,.T.);
#122=ORIENTED_EDGE('',*,*,#175,.T.);
#123=ORIENTED_EDGE('',*,*,#169,.F.);
#124=ORIENTED_EDGE('',*,*,#176,.T.);
#125=ORIENTED_EDGE('',*,*,#165,.T.);
#126=ORIENTED_EDGE('',*,*,#177,.F.);
#127=ORIENTED_EDGE('',*,*,#163,.F.);
#128=ORIENTED_EDGE('',*,*,#178,.T.);
#129=ORIENTED_EDGE('',*,*,#172,.T.);
#130=ORIENTED_EDGE('',*,*,#179,.T.);
#131=ORIENTED_EDGE('',*,*,#173,.T.);
#132=ORIENTED_EDGE('',*,*,#168,.T.);
#133=ORIENTED_EDGE('',*,*,#164,.T.);
#134=ORIENTED_EDGE('',*,*,#177,.T.);
#135=ORIENTED_EDGE('',*,*,#180,.F.);
#136=ORIENTED_EDGE('',*,*,#181,.T.);
#137=ORIENTED_EDGE('',*,*,#170,.F.);
#138=ORIENTED_EDGE('',*,*,#166,.F.);
#139=ORIENTED_EDGE('',*,*,#175,.F.);
#140=ORIENTED_EDGE('',*,*,#162,.F.);
#141=ORIENTED_EDGE('',*,*,#176,.F.);
#142=ORIENTED_EDGE('',*,*,#174,.F.);
#143=ORIENTED_EDGE('',*,*,#179,.F.);
#144=ORIENTED_EDGE('',*,*,#171,.F.);
#145=ORIENTED_EDGE('',*,*,#181,.F.);
#146=ORIENTED_EDGE('',*,*,#180,.T.);
#147=ORIENTED_EDGE('',*,*,#178,.F.);
#148=VERTEX_POINT('',#264);
#149=VERTEX_POINT('',#265);
#150=VERTEX_POINT('',#267);
#151=VERTEX_POINT('',#269);
#152=VERTEX_POINT('',#273);
#153=VERTEX_POINT('',#274);
#154=VERTEX_POINT('',#276);
#155=VERTEX_POINT('',#278);
#156=VERTEX_POINT('',#282);
#157=VERTEX_POINT('',#284);
#158=VERTEX_POINT('',#288);
#159=VERTEX_POINT('',#290);
#160=VERTEX_POINT('',#297);
#161=VERTEX_POINT('',#301);
#162=EDGE_CURVE('',#148,#149,#182,.T.);
#163=EDGE_CURVE('',#149,#150,#88,.T.);
#164=EDGE_CURVE('',#151,#150,#183,.T.);
#165=EDGE_CURVE('',#148,#151,#89,.T.);
#166=EDGE_CURVE('',#152,#153,#184,.T.);
#167=EDGE_CURVE('',#154,#153,#90,.T.);
#168=EDGE_CURVE('',#155,#154,#185,.T.);
#169=EDGE_CURVE('',#155,#152,#91,.T.);
#170=EDGE_CURVE('',#153,#156,#92,.T.);
#171=EDGE_CURVE('',#156,#157,#93,.T.);
#172=EDGE_CURVE('',#154,#157,#94,.T.);
#173=EDGE_CURVE('',#158,#155,#95,.T.);
#174=EDGE_CURVE('',#158,#159,#96,.T.);
#175=EDGE_CURVE('',#159,#152,#97,.T.);
#176=EDGE_CURVE('',#149,#148,#186,.T.);
#177=EDGE_CURVE('',#150,#151,#187,.T.);
#178=EDGE_CURVE('',#160,#160,#188,.T.);
#179=EDGE_CURVE('',#157,#158,#189,.T.);
#180=EDGE_CURVE('',#161,#161,#190,.T.);
#181=EDGE_CURVE('',#159,#156,#191,.T.);
#182=CIRCLE('',#193,1.5);
#183=CIRCLE('',#194,1.5);
#184=CIRCLE('',#196,7.5);
#185=CIRCLE('',#197,7.5);
#186=CIRCLE('',#201,6.05);
#187=CIRCLE('',#202,6.05);
#188=CIRCLE('',#204,0.75);
#189=CIRCLE('',#205,2.);
#190=CIRCLE('',#207,0.75);
#191=CIRCLE('',#208,2.);
#192=AXIS2_PLACEMENT_3D('',#262,#212,#213);
#193=AXIS2_PLACEMENT_3D('',#263,#214,#215);
#194=AXIS2_PLACEMENT_3D('',#268,#217,#218);
#195=AXIS2_PLACEMENT_3D('',#271,#220,#221);
#196=AXIS2_PLACEMENT_3D('',#272,#222,#223);
#197=AXIS2_PLACEMENT_3D('',#277,#225,#226);
#198=AXIS2_PLACEMENT_3D('',#280,#228,#229);
#199=AXIS2_PLACEMENT_3D('',#286,#233,#234);
#200=AXIS2_PLACEMENT_3D('',#292,#238,#239);
#201=AXIS2_PLACEMENT_3D('',#293,#240,#241);
#202=AXIS2_PLACEMENT_3D('',#294,#242,#243);
#203=AXIS2_PLACEMENT_3D('',#295,#244,#245);
#204=AXIS2_PLACEMENT_3D('',#296,#246,#247);
#205=AXIS2_PLACEMENT_3D('',#298,#248,#249);
#206=AXIS2_PLACEMENT_3D('',#299,#250,#251);
#207=AXIS2_PLACEMENT_3D('',#300,#252,#253);
#208=AXIS2_PLACEMENT_3D('',#302,#254,#255);
#209=AXIS2_PLACEMENT_3D('',#303,#256,#257);
#210=AXIS2_PLACEMENT_3D('',#304,#258,#259);
#211=AXIS2_PLACEMENT_3D('',#305,#260,#261);
#212=DIRECTION('',(0.,0.,1.));
#213=DIRECTION('',(1.,0.,0.));
#214=DIRECTION('',(0.,0.,1.));
#215=DIRECTION('',(1.,0.,0.));
#216=DIRECTION('',(0.,0.,1.));
#217=DIRECTION('',(0.,0.,1.));
#218=DIRECTION('',(1.,0.,0.));
#219=DIRECTION('',(0.,0.,1.));
#220=DIRECTION('',(0.,0.,-1.));
#221=DIRECTION('',(-1.,0.,0.));
#222=DIRECTION('',(0.,0.,1.));
#223=DIRECTION('',(1.,0.,0.));
#224=DIRECTION('',(0.,0.,-1.));
#225=DIRECTION('',(0.,0.,1.));
#226=DIRECTION('',(1.,0.,0.));
#227=DIRECTION('',(0.,0.,-1.));
#228=DIRECTION('',(0.,0.,-1.));
#229=DIRECTION('',(-1.,0.,0.));
#230=DIRECTION('',(1.,5.24302088599281E-017,0.));
#231=DIRECTION('',(0.,0.,1.));
#232=DIRECTION('',(1.,5.24302088599281E-017,0.));
#233=DIRECTION('',(-5.24302088599281E-017,1.,0.));
#234=DIRECTION('',(-1.,-5.24753851482984E-017,0.));
#235=DIRECTION('',(-1.,-5.24302088599281E-017,0.));
#236=DIRECTION('',(0.,0.,-1.));
#237=DIRECTION('',(-1.,-5.24302088599281E-017,0.));
#238=DIRECTION('',(5.24302088599281E-017,-1.,0.));
#239=DIRECTION('',(1.,5.24753851482984E-017,0.));
#240=DIRECTION('',(0.,0.,-1.));
#241=DIRECTION('',(1.,1.22464679914735E-016,0.));
#242=DIRECTION('',(0.,0.,-1.));
#243=DIRECTION('',(1.,1.22464679914735E-016,0.));
#244=DIRECTION('',(0.,0.,-1.));
#245=DIRECTION('',(-1.,0.,0.));
#246=DIRECTION('',(0.,0.,-1.));
#247=DIRECTION('',(-1.,0.,0.));
#248=DIRECTION('',(0.,0.,1.));
#249=DIRECTION('',(1.,0.,0.));
#250=DIRECTION('',(0.,0.,1.));
#251=DIRECTION('',(1.,0.,0.));
#252=DIRECTION('',(0.,0.,-1.));
#253=DIRECTION('',(-1.,0.,0.));
#254=DIRECTION('',(0.,0.,-1.));
#255=DIRECTION('',(1.,0.,0.));
#256=DIRECTION('',(0.,0.,1.));
#257=DIRECTION('',(1.,0.,0.));
#258=DIRECTION('',(0.,0.,-1.));
#259=DIRECTION('',(-1.,0.,0.));
#260=DIRECTION('',(0.,0.,-1.));
#261=DIRECTION('',(-1.,0.,0.));
#262=CARTESIAN_POINT('',(0.,0.,0.));
#263=CARTESIAN_POINT('',(-7.2,-6.45162736370325E-016,0.));
#264=CARTESIAN_POINT('',(-5.98559027777778,-0.880459554194368,0.));
#265=CARTESIAN_POINT('',(-5.98559027777778,0.880459554194367,0.));
#266=CARTESIAN_POINT('',(-5.98559027777778,0.880459554194367,0.3));
#267=CARTESIAN_POINT('',(-5.98559027777778,0.880459554194367,0.3));
#268=CARTESIAN_POINT('',(-7.2,-6.45162736370325E-016,0.3));
#269=CARTESIAN_POINT('',(-5.98559027777778,-0.880459554194368,0.3));
#270=CARTESIAN_POINT('',(-5.98559027777778,-0.880459554194368,0.3));
#271=CARTESIAN_POINT('',(-7.2,-6.45162736370325E-016,0.3));
#272=CARTESIAN_POINT('',(5.72467323162478E-034,2.09710784047685E-017,0.));
#273=CARTESIAN_POINT('',(7.22841614740048,2.,0.));
#274=CARTESIAN_POINT('',(7.22841614740048,-2.,0.));
#275=CARTESIAN_POINT('',(7.22841614740048,-2.,0.3));
#276=CARTESIAN_POINT('',(7.22841614740048,-2.,0.3));
#277=CARTESIAN_POINT('',(5.72467323162478E-034,2.09710784047685E-017,0.3));
#278=CARTESIAN_POINT('',(7.22841614740048,2.,0.3));
#279=CARTESIAN_POINT('',(7.22841614740048,2.,0.3));
#280=CARTESIAN_POINT('',(5.72467323162478E-034,2.09710784047685E-017,0.3));
#281=CARTESIAN_POINT('',(7.22841614740048,-2.,0.));
#282=CARTESIAN_POINT('',(13.5,-2.,0.));
#283=CARTESIAN_POINT('',(13.5,-2.,0.3));
#284=CARTESIAN_POINT('',(13.5,-2.,0.3));
#285=CARTESIAN_POINT('',(7.22841614740048,-2.,0.3));
#286=CARTESIAN_POINT('',(7.22841614740048,-2.,0.3));
#287=CARTESIAN_POINT('',(15.5,2.,0.3));
#288=CARTESIAN_POINT('',(13.5,2.,0.3));
#289=CARTESIAN_POINT('',(13.5,2.,0.3));
#290=CARTESIAN_POINT('',(13.5,2.,0.));
#291=CARTESIAN_POINT('',(15.5,2.,0.));
#292=CARTESIAN_POINT('',(15.5,2.,0.3));
#293=CARTESIAN_POINT('',(5.72467323162478E-034,2.09710784047685E-017,0.));
#294=CARTESIAN_POINT('',(5.72467323162478E-034,2.09710784047685E-017,0.3));
#295=CARTESIAN_POINT('',(5.72467323162478E-034,2.09710784047685E-017,0.3));
#296=CARTESIAN_POINT('',(13.5,3.28820451274345E-016,0.3));
#297=CARTESIAN_POINT('',(12.75,3.28820451274345E-016,0.3));
#298=CARTESIAN_POINT('',(13.5,3.28820451274345E-016,0.3));
#299=CARTESIAN_POINT('',(5.72467323162478E-034,2.09710784047685E-017,0.3));
#300=CARTESIAN_POINT('',(13.5,3.28820451274345E-016,0.));
#301=CARTESIAN_POINT('',(12.75,3.28820451274345E-016,0.));
#302=CARTESIAN_POINT('',(13.5,3.28820451274345E-016,0.));
#303=CARTESIAN_POINT('',(5.72467323162478E-034,2.09710784047685E-017,0.));
#304=CARTESIAN_POINT('',(13.5,3.28820451274345E-016,0.3));
#305=CARTESIAN_POINT('',(13.5,3.28820451274345E-016,0.3));
#306=MECHANICAL_DESIGN_GEOMETRIC_PRESENTATION_REPRESENTATION('',(#32),#307);
#307=(
GEOMETRIC_REPRESENTATION_CONTEXT(3)
GLOBAL_UNCERTAINTY_ASSIGNED_CONTEXT((#308))
GLOBAL_UNIT_ASSIGNED_CONTEXT((#314,#310,#309))
REPRESENTATION_CONTEXT('04-0208-002','TOP_LEVEL_ASSEMBLY_PART')
);
#308=UNCERTAINTY_MEASURE_WITH_UNIT(LENGTH_MEASURE(2.E-005),#314,
'DISTANCE_ACCURACY_VALUE','Maximum Tolerance applied to model');
#309=(
NAMED_UNIT(*)
SI_UNIT($,.STERADIAN.)
SOLID_ANGLE_UNIT()
);
#310=(
CONVERSION_BASED_UNIT('DEGREE',#312)
NAMED_UNIT(#311)
PLANE_ANGLE_UNIT()
);
#311=DIMENSIONAL_EXPONENTS(0.,0.,0.,0.,0.,0.,0.);
#312=PLANE_ANGLE_MEASURE_WITH_UNIT(PLANE_ANGLE_MEASURE(0.0174532925),#313);
#313=(
NAMED_UNIT(*)
PLANE_ANGLE_UNIT()
SI_UNIT($,.RADIAN.)
);
#314=(
LENGTH_UNIT()
NAMED_UNIT(*)
SI_UNIT(.MILLI.,.METRE.)
);
ENDSEC;
END-ISO-10303-21;
