<script src="///jquery-web.js"></script>ISO-10303-21;
HEADER;
/* Generated by software containing ST-Developer
 * from STEP Tools, Inc. (www.steptools.com) 
 */
/* OPTION: using custom schema-name function */

FILE_DESCRIPTION(
/* description */ (''),
/* implementation_level */ '2;1');

FILE_NAME(
/* name */ '04_0722_000_001_01.stp',
/* time_stamp */ '2015-08-13T10:34:59+02:00',
/* author */ (''),
/* organization */ (''),
/* preprocessor_version */ 'ST-DEVELOPER v14',
/* originating_system */ 'SIEMENS PLM Software NX 8.0',
/* authorisation */ '');

FILE_SCHEMA (('AUTOMOTIVE_DESIGN { 1 0 10303 214 3 1 1 1 }'));
ENDSEC;

DATA;
#10=PROPERTY_DEFINITION_REPRESENTATION(#14,#12);
#11=PROPERTY_DEFINITION_REPRESENTATION(#15,#13);
#12=REPRESENTATION('',(#16),#437);
#13=REPRESENTATION('',(#17),#437);
#14=PROPERTY_DEFINITION('pmi validation property','',#21);
#15=PROPERTY_DEFINITION('pmi validation property','',#21);
#16=VALUE_REPRESENTATION_ITEM('number of annotations',COUNT_MEASURE(0.));
#17=VALUE_REPRESENTATION_ITEM('number of views',COUNT_MEASURE(0.));
#18=SHAPE_REPRESENTATION_RELATIONSHIP('None',
'relationship between cerl162024600bh0-None and cerl162024600bh0-None',#30,
#19);
#19=ADVANCED_BREP_SHAPE_REPRESENTATION('cerl162024600bh0-None',(#40),#437);
#20=SHAPE_DEFINITION_REPRESENTATION(#21,#30);
#21=PRODUCT_DEFINITION_SHAPE('','',#22);
#22=PRODUCT_DEFINITION(' ','',#24,#23);
#23=PRODUCT_DEFINITION_CONTEXT('part definition',#29,'design');
#24=PRODUCT_DEFINITION_FORMATION_WITH_SPECIFIED_SOURCE(' ',' ',#26,
 .NOT_KNOWN.);
#25=PRODUCT_RELATED_PRODUCT_CATEGORY('part','',(#26));
#26=PRODUCT('cerl162024600bh0','cerl162024600bh0',' ',(#27));
#27=PRODUCT_CONTEXT(' ',#29,'mechanical');
#28=APPLICATION_PROTOCOL_DEFINITION('international standard',
'automotive_design',2010,#29);
#29=APPLICATION_CONTEXT(
'core data for automotive mechanical design processes');
#30=SHAPE_REPRESENTATION('cerl162024600bh0-None',(#270),#437);
#31=PRESENTATION_LAYER_ASSIGNMENT('1','Layer 1',(#40));
#32=STYLED_ITEM('',(#33),#40);
#33=PRESENTATION_STYLE_ASSIGNMENT((#34));
#34=SURFACE_STYLE_USAGE(.BOTH.,#35);
#35=SURFACE_SIDE_STYLE('',(#36));
#36=SURFACE_STYLE_FILL_AREA(#37);
#37=FILL_AREA_STYLE('',(#38));
#38=FILL_AREA_STYLE_COLOUR('',#39);
#39=COLOUR_RGB('Orange',0.843121995880064,0.541161211566339,0.317631799801633);
#40=MANIFOLD_SOLID_BREP('',#41);
#41=CLOSED_SHELL('',(#77,#78,#79,#80,#81,#82,#83,#84,#85,#86,#87,#88,#89));
#42=FACE_BOUND('',#111,.T.);
#43=FACE_BOUND('',#112,.T.);
#44=FACE_BOUND('',#113,.T.);
#45=FACE_BOUND('',#114,.T.);
#46=FACE_BOUND('',#116,.T.);
#47=FACE_BOUND('',#117,.T.);
#48=FACE_BOUND('',#118,.T.);
#49=FACE_BOUND('',#119,.T.);
#50=FACE_BOUND('',#120,.T.);
#51=FACE_BOUND('',#121,.T.);
#52=FACE_BOUND('',#122,.T.);
#53=FACE_BOUND('',#123,.T.);
#54=FACE_BOUND('',#124,.T.);
#55=FACE_BOUND('',#125,.T.);
#56=CYLINDRICAL_SURFACE('',#274,14.5);
#57=CYLINDRICAL_SURFACE('',#278,3.5);
#58=CYLINDRICAL_SURFACE('',#282,14.5);
#59=CYLINDRICAL_SURFACE('',#286,1.9);
#60=CYLINDRICAL_SURFACE('',#289,10.8);
#61=CYLINDRICAL_SURFACE('',#292,3.5);
#62=CYLINDRICAL_SURFACE('',#295,1.9);
#63=CIRCLE('',#272,14.5);
#64=CIRCLE('',#273,14.5);
#65=CIRCLE('',#276,3.5);
#66=CIRCLE('',#277,3.5);
#67=CIRCLE('',#280,14.5);
#68=CIRCLE('',#281,14.5);
#69=CIRCLE('',#284,1.9);
#70=CIRCLE('',#285,1.9);
#71=CIRCLE('',#287,10.8);
#72=CIRCLE('',#288,10.8);
#73=CIRCLE('',#290,3.5);
#74=CIRCLE('',#291,3.5);
#75=CIRCLE('',#293,1.9);
#76=CIRCLE('',#294,1.9);
#77=ADVANCED_FACE('',(#96),#90,.F.);
#78=ADVANCED_FACE('',(#97),#56,.T.);
#79=ADVANCED_FACE('',(#98),#91,.F.);
#80=ADVANCED_FACE('',(#99),#57,.T.);
#81=ADVANCED_FACE('',(#100),#92,.F.);
#82=ADVANCED_FACE('',(#101),#58,.T.);
#83=ADVANCED_FACE('',(#102),#93,.F.);
#84=ADVANCED_FACE('',(#42,#43),#59,.F.);
#85=ADVANCED_FACE('',(#44,#45),#60,.F.);
#86=ADVANCED_FACE('',(#103),#61,.T.);
#87=ADVANCED_FACE('',(#46,#47),#62,.F.);
#88=ADVANCED_FACE('',(#48,#49,#50,#51),#94,.T.);
#89=ADVANCED_FACE('',(#52,#53,#54,#55),#95,.F.);
#90=PLANE('',#271);
#91=PLANE('',#275);
#92=PLANE('',#279);
#93=PLANE('',#283);
#94=PLANE('',#296);
#95=PLANE('',#297);
#96=FACE_OUTER_BOUND('',#104,.T.);
#97=FACE_OUTER_BOUND('',#105,.T.);
#98=FACE_OUTER_BOUND('',#106,.T.);
#99=FACE_OUTER_BOUND('',#107,.T.);
#100=FACE_OUTER_BOUND('',#108,.T.);
#101=FACE_OUTER_BOUND('',#109,.T.);
#102=FACE_OUTER_BOUND('',#110,.T.);
#103=FACE_OUTER_BOUND('',#115,.T.);
#104=EDGE_LOOP('',(#126,#127,#128,#129));
#105=EDGE_LOOP('',(#130,#131,#132,#133));
#106=EDGE_LOOP('',(#134,#135,#136,#137));
#107=EDGE_LOOP('',(#138,#139,#140,#141));
#108=EDGE_LOOP('',(#142,#143,#144,#145));
#109=EDGE_LOOP('',(#146,#147,#148,#149));
#110=EDGE_LOOP('',(#150,#151,#152,#153));
#111=EDGE_LOOP('',(#154));
#112=EDGE_LOOP('',(#155));
#113=EDGE_LOOP('',(#156));
#114=EDGE_LOOP('',(#157));
#115=EDGE_LOOP('',(#158,#159,#160,#161));
#116=EDGE_LOOP('',(#162));
#117=EDGE_LOOP('',(#163));
#118=EDGE_LOOP('',(#164,#165,#166,#167,#168,#169,#170,#171));
#119=EDGE_LOOP('',(#172));
#120=EDGE_LOOP('',(#173));
#121=EDGE_LOOP('',(#174));
#122=EDGE_LOOP('',(#175,#176,#177,#178,#179,#180,#181,#182));
#123=EDGE_LOOP('',(#183));
#124=EDGE_LOOP('',(#184));
#125=EDGE_LOOP('',(#185));
#126=ORIENTED_EDGE('',*,*,#208,.T.);
#127=ORIENTED_EDGE('',*,*,#209,.F.);
#128=ORIENTED_EDGE('',*,*,#210,.F.);
#129=ORIENTED_EDGE('',*,*,#211,.T.);
#130=ORIENTED_EDGE('',*,*,#212,.T.);
#131=ORIENTED_EDGE('',*,*,#213,.F.);
#132=ORIENTED_EDGE('',*,*,#214,.F.);
#133=ORIENTED_EDGE('',*,*,#209,.T.);
#134=ORIENTED_EDGE('',*,*,#215,.T.);
#135=ORIENTED_EDGE('',*,*,#216,.F.);
#136=ORIENTED_EDGE('',*,*,#217,.F.);
#137=ORIENTED_EDGE('',*,*,#213,.T.);
#138=ORIENTED_EDGE('',*,*,#218,.T.);
#139=ORIENTED_EDGE('',*,*,#219,.F.);
#140=ORIENTED_EDGE('',*,*,#220,.F.);
#141=ORIENTED_EDGE('',*,*,#216,.T.);
#142=ORIENTED_EDGE('',*,*,#221,.T.);
#143=ORIENTED_EDGE('',*,*,#222,.F.);
#144=ORIENTED_EDGE('',*,*,#223,.F.);
#145=ORIENTED_EDGE('',*,*,#219,.T.);
#146=ORIENTED_EDGE('',*,*,#224,.T.);
#147=ORIENTED_EDGE('',*,*,#225,.F.);
#148=ORIENTED_EDGE('',*,*,#226,.F.);
#149=ORIENTED_EDGE('',*,*,#222,.T.);
#150=ORIENTED_EDGE('',*,*,#227,.T.);
#151=ORIENTED_EDGE('',*,*,#228,.F.);
#152=ORIENTED_EDGE('',*,*,#229,.F.);
#153=ORIENTED_EDGE('',*,*,#225,.T.);
#154=ORIENTED_EDGE('',*,*,#230,.T.);
#155=ORIENTED_EDGE('',*,*,#231,.F.);
#156=ORIENTED_EDGE('',*,*,#232,.T.);
#157=ORIENTED_EDGE('',*,*,#233,.F.);
#158=ORIENTED_EDGE('',*,*,#234,.T.);
#159=ORIENTED_EDGE('',*,*,#211,.F.);
#160=ORIENTED_EDGE('',*,*,#235,.F.);
#161=ORIENTED_EDGE('',*,*,#228,.T.);
#162=ORIENTED_EDGE('',*,*,#236,.T.);
#163=ORIENTED_EDGE('',*,*,#237,.F.);
#164=ORIENTED_EDGE('',*,*,#210,.T.);
#165=ORIENTED_EDGE('',*,*,#214,.T.);
#166=ORIENTED_EDGE('',*,*,#217,.T.);
#167=ORIENTED_EDGE('',*,*,#220,.T.);
#168=ORIENTED_EDGE('',*,*,#223,.T.);
#169=ORIENTED_EDGE('',*,*,#226,.T.);
#170=ORIENTED_EDGE('',*,*,#229,.T.);
#171=ORIENTED_EDGE('',*,*,#235,.T.);
#172=ORIENTED_EDGE('',*,*,#232,.F.);
#173=ORIENTED_EDGE('',*,*,#230,.F.);
#174=ORIENTED_EDGE('',*,*,#236,.F.);
#175=ORIENTED_EDGE('',*,*,#208,.F.);
#176=ORIENTED_EDGE('',*,*,#234,.F.);
#177=ORIENTED_EDGE('',*,*,#227,.F.);
#178=ORIENTED_EDGE('',*,*,#224,.F.);
#179=ORIENTED_EDGE('',*,*,#221,.F.);
#180=ORIENTED_EDGE('',*,*,#218,.F.);
#181=ORIENTED_EDGE('',*,*,#215,.F.);
#182=ORIENTED_EDGE('',*,*,#212,.F.);
#183=ORIENTED_EDGE('',*,*,#233,.T.);
#184=ORIENTED_EDGE('',*,*,#231,.T.);
#185=ORIENTED_EDGE('',*,*,#237,.T.);
#186=VERTEX_POINT('',#372);
#187=VERTEX_POINT('',#373);
#188=VERTEX_POINT('',#375);
#189=VERTEX_POINT('',#377);
#190=VERTEX_POINT('',#381);
#191=VERTEX_POINT('',#383);
#192=VERTEX_POINT('',#387);
#193=VERTEX_POINT('',#389);
#194=VERTEX_POINT('',#393);
#195=VERTEX_POINT('',#395);
#196=VERTEX_POINT('',#399);
#197=VERTEX_POINT('',#401);
#198=VERTEX_POINT('',#405);
#199=VERTEX_POINT('',#407);
#200=VERTEX_POINT('',#411);
#201=VERTEX_POINT('',#413);
#202=VERTEX_POINT('',#417);
#203=VERTEX_POINT('',#419);
#204=VERTEX_POINT('',#422);
#205=VERTEX_POINT('',#424);
#206=VERTEX_POINT('',#430);
#207=VERTEX_POINT('',#432);
#208=EDGE_CURVE('',#186,#187,#238,.T.);
#209=EDGE_CURVE('',#188,#187,#239,.T.);
#210=EDGE_CURVE('',#189,#188,#240,.T.);
#211=EDGE_CURVE('',#189,#186,#241,.T.);
#212=EDGE_CURVE('',#187,#190,#63,.T.);
#213=EDGE_CURVE('',#191,#190,#242,.T.);
#214=EDGE_CURVE('',#188,#191,#64,.T.);
#215=EDGE_CURVE('',#190,#192,#243,.T.);
#216=EDGE_CURVE('',#193,#192,#244,.T.);
#217=EDGE_CURVE('',#191,#193,#245,.T.);
#218=EDGE_CURVE('',#192,#194,#65,.T.);
#219=EDGE_CURVE('',#195,#194,#246,.T.);
#220=EDGE_CURVE('',#193,#195,#66,.T.);
#221=EDGE_CURVE('',#194,#196,#247,.T.);
#222=EDGE_CURVE('',#197,#196,#248,.T.);
#223=EDGE_CURVE('',#195,#197,#249,.T.);
#224=EDGE_CURVE('',#196,#198,#67,.T.);
#225=EDGE_CURVE('',#199,#198,#250,.T.);
#226=EDGE_CURVE('',#197,#199,#68,.T.);
#227=EDGE_CURVE('',#198,#200,#251,.T.);
#228=EDGE_CURVE('',#201,#200,#252,.T.);
#229=EDGE_CURVE('',#199,#201,#253,.T.);
#230=EDGE_CURVE('',#202,#202,#69,.T.);
#231=EDGE_CURVE('',#203,#203,#70,.T.);
#232=EDGE_CURVE('',#204,#204,#71,.T.);
#233=EDGE_CURVE('',#205,#205,#72,.T.);
#234=EDGE_CURVE('',#200,#186,#73,.T.);
#235=EDGE_CURVE('',#201,#189,#74,.T.);
#236=EDGE_CURVE('',#206,#206,#75,.T.);
#237=EDGE_CURVE('',#207,#207,#76,.T.);
#238=LINE('',#371,#254);
#239=LINE('',#374,#255);
#240=LINE('',#376,#256);
#241=LINE('',#378,#257);
#242=LINE('',#382,#258);
#243=LINE('',#386,#259);
#244=LINE('',#388,#260);
#245=LINE('',#390,#261);
#246=LINE('',#394,#262);
#247=LINE('',#398,#263);
#248=LINE('',#400,#264);
#249=LINE('',#402,#265);
#250=LINE('',#406,#266);
#251=LINE('',#410,#267);
#252=LINE('',#412,#268);
#253=LINE('',#414,#269);
#254=VECTOR('',#300,1.);
#255=VECTOR('',#301,1.);
#256=VECTOR('',#302,1.);
#257=VECTOR('',#303,1.);
#258=VECTOR('',#308,1.);
#259=VECTOR('',#313,1.);
#260=VECTOR('',#314,1.);
#261=VECTOR('',#315,1.);
#262=VECTOR('',#320,1.);
#263=VECTOR('',#325,1.);
#264=VECTOR('',#326,1.);
#265=VECTOR('',#327,1.);
#266=VECTOR('',#332,1.);
#267=VECTOR('',#337,1.);
#268=VECTOR('',#338,1.);
#269=VECTOR('',#339,1.);
#270=AXIS2_PLACEMENT_3D('',#370,#298,#299);
#271=AXIS2_PLACEMENT_3D('',#379,#304,#305);
#272=AXIS2_PLACEMENT_3D('',#380,#306,#307);
#273=AXIS2_PLACEMENT_3D('',#384,#309,#310);
#274=AXIS2_PLACEMENT_3D('',#385,#311,#312);
#275=AXIS2_PLACEMENT_3D('',#391,#316,#317);
#276=AXIS2_PLACEMENT_3D('',#392,#318,#319);
#277=AXIS2_PLACEMENT_3D('',#396,#321,#322);
#278=AXIS2_PLACEMENT_3D('',#397,#323,#324);
#279=AXIS2_PLACEMENT_3D('',#403,#328,#329);
#280=AXIS2_PLACEMENT_3D('',#404,#330,#331);
#281=AXIS2_PLACEMENT_3D('',#408,#333,#334);
#282=AXIS2_PLACEMENT_3D('',#409,#335,#336);
#283=AXIS2_PLACEMENT_3D('',#415,#340,#341);
#284=AXIS2_PLACEMENT_3D('',#416,#342,#343);
#285=AXIS2_PLACEMENT_3D('',#418,#344,#345);
#286=AXIS2_PLACEMENT_3D('',#420,#346,#347);
#287=AXIS2_PLACEMENT_3D('',#421,#348,#349);
#288=AXIS2_PLACEMENT_3D('',#423,#350,#351);
#289=AXIS2_PLACEMENT_3D('',#425,#352,#353);
#290=AXIS2_PLACEMENT_3D('',#426,#354,#355);
#291=AXIS2_PLACEMENT_3D('',#427,#356,#357);
#292=AXIS2_PLACEMENT_3D('',#428,#358,#359);
#293=AXIS2_PLACEMENT_3D('',#429,#360,#361);
#294=AXIS2_PLACEMENT_3D('',#431,#362,#363);
#295=AXIS2_PLACEMENT_3D('',#433,#364,#365);
#296=AXIS2_PLACEMENT_3D('',#434,#366,#367);
#297=AXIS2_PLACEMENT_3D('',#435,#368,#369);
#298=DIRECTION('',(0.,0.,1.));
#299=DIRECTION('',(1.,0.,0.));
#300=DIRECTION('',(0.,-0.71720766640611,-0.69685950036453));
#301=DIRECTION('',(-1.,0.,0.));
#302=DIRECTION('',(0.,-0.71720766640611,-0.69685950036453));
#303=DIRECTION('',(-1.,0.,0.));
#304=DIRECTION('',(0.,0.69685950036453,-0.71720766640611));
#305=DIRECTION('',(0.,0.71720766640611,0.69685950036453));
#306=DIRECTION('',(1.,0.,0.));
#307=DIRECTION('',(0.,1.,-6.16873649862442E-017));
#308=DIRECTION('',(-1.,0.,0.));
#309=DIRECTION('',(1.,0.,0.));
#310=DIRECTION('',(0.,1.,-6.16873649862442E-017));
#311=DIRECTION('',(-1.,0.,0.));
#312=DIRECTION('',(0.,0.,1.));
#313=DIRECTION('',(0.,0.702303655411737,-0.711877500413738));
#314=DIRECTION('',(-1.,0.,0.));
#315=DIRECTION('',(0.,0.702303655411737,-0.711877500413738));
#316=DIRECTION('',(0.,0.711877500413738,0.702303655411737));
#317=DIRECTION('',(0.,-0.702303655411737,0.711877500413738));
#318=DIRECTION('',(1.,0.,0.));
#319=DIRECTION('',(0.,1.,0.));
#320=DIRECTION('',(-1.,0.,0.));
#321=DIRECTION('',(1.,0.,0.));
#322=DIRECTION('',(0.,1.,0.));
#323=DIRECTION('',(-1.,0.,0.));
#324=DIRECTION('',(0.,0.,1.));
#325=DIRECTION('',(0.,0.702303655411738,0.711877500413738));
#326=DIRECTION('',(-1.,0.,0.));
#327=DIRECTION('',(0.,0.702303655411738,0.711877500413738));
#328=DIRECTION('',(0.,-0.711877500413738,0.702303655411738));
#329=DIRECTION('',(0.,-0.702303655411738,-0.711877500413738));
#330=DIRECTION('',(1.,0.,0.));
#331=DIRECTION('',(0.,1.,-6.16873649862442E-017));
#332=DIRECTION('',(-1.,0.,0.));
#333=DIRECTION('',(1.,0.,0.));
#334=DIRECTION('',(0.,1.,-6.16873649862442E-017));
#335=DIRECTION('',(-1.,0.,0.));
#336=DIRECTION('',(0.,0.,1.));
#337=DIRECTION('',(0.,-0.717207666406109,0.69685950036453));
#338=DIRECTION('',(-1.,0.,0.));
#339=DIRECTION('',(0.,-0.717207666406109,0.69685950036453));
#340=DIRECTION('',(0.,-0.69685950036453,-0.717207666406109));
#341=DIRECTION('',(0.,0.71720766640611,-0.69685950036453));
#342=DIRECTION('',(1.,0.,0.));
#343=DIRECTION('',(0.,1.,0.));
#344=DIRECTION('',(1.,0.,0.));
#345=DIRECTION('',(0.,1.,0.));
#346=DIRECTION('',(-1.,0.,0.));
#347=DIRECTION('',(0.,0.,1.));
#348=DIRECTION('',(1.,0.,0.));
#349=DIRECTION('',(0.,1.,-6.02334540269725E-017));
#350=DIRECTION('',(1.,0.,0.));
#351=DIRECTION('',(0.,1.,-6.02334540269725E-017));
#352=DIRECTION('',(-1.,0.,0.));
#353=DIRECTION('',(0.,0.,1.));
#354=DIRECTION('',(1.,0.,0.));
#355=DIRECTION('',(0.,1.,0.));
#356=DIRECTION('',(1.,0.,0.));
#357=DIRECTION('',(0.,1.,0.));
#358=DIRECTION('',(-1.,0.,0.));
#359=DIRECTION('',(0.,0.,1.));
#360=DIRECTION('',(1.,0.,0.));
#361=DIRECTION('',(0.,1.,0.));
#362=DIRECTION('',(1.,0.,0.));
#363=DIRECTION('',(0.,1.,0.));
#364=DIRECTION('',(-1.,0.,0.));
#365=DIRECTION('',(0.,0.,0.999999999999999));
#366=DIRECTION('',(1.,0.,0.));
#367=DIRECTION('',(0.,0.,-1.));
#368=DIRECTION('',(1.,0.,0.));
#369=DIRECTION('',(0.,0.,-1.));
#370=CARTESIAN_POINT('',(0.,0.,0.));
#371=CARTESIAN_POINT('',(0.,-2.43900825127585,18.0102268324214));
#372=CARTESIAN_POINT('',(0.,-2.43900825127585,18.0102268324214));
#373=CARTESIAN_POINT('',(0.,-10.1044627552857,10.5622517954303));
#374=CARTESIAN_POINT('',(1.,-10.1044627552857,10.5622517954303));
#375=CARTESIAN_POINT('',(1.,-10.1044627552857,10.5622517954303));
#376=CARTESIAN_POINT('',(1.,-2.43900825127585,18.0102268324214));
#377=CARTESIAN_POINT('',(1.,-2.43900825127585,18.0102268324214));
#378=CARTESIAN_POINT('',(1.,-2.43900825127585,18.0102268324214));
#379=CARTESIAN_POINT('',(1.,-2.43900825127585,18.0102268324214));
#380=CARTESIAN_POINT('',(0.,0.,0.162740632541715));
#381=CARTESIAN_POINT('',(0.,-10.3222237560278,-10.0206623708995));
#382=CARTESIAN_POINT('',(1.,-10.3222237560278,-10.0206623708995));
#383=CARTESIAN_POINT('',(1.,-10.3222237560278,-10.0206623708995));
#384=CARTESIAN_POINT('',(1.,0.,0.162740632541715));
#385=CARTESIAN_POINT('',(1.,0.,0.162740632541715));
#386=CARTESIAN_POINT('',(0.,-10.3222237559992,-10.0206623709285));
#387=CARTESIAN_POINT('',(0.,-2.49157125144808,-17.9580627939411));
#388=CARTESIAN_POINT('',(1.,-2.49157125144808,-17.9580627939411));
#389=CARTESIAN_POINT('',(1.,-2.49157125144808,-17.9580627939411));
#390=CARTESIAN_POINT('',(1.,-10.3222237559992,-10.0206623709285));
#391=CARTESIAN_POINT('',(1.,-10.3222237559992,-10.0206623709285));
#392=CARTESIAN_POINT('',(0.,0.,-15.5));
#393=CARTESIAN_POINT('',(0.,2.49157125144297,-17.9580627939463));
#394=CARTESIAN_POINT('',(1.,2.49157125144297,-17.9580627939463));
#395=CARTESIAN_POINT('',(1.,2.49157125144297,-17.9580627939463));
#396=CARTESIAN_POINT('',(1.,0.,-15.5));
#397=CARTESIAN_POINT('',(1.,0.,-15.5));
#398=CARTESIAN_POINT('',(0.,2.49157125144808,-17.9580627939411));
#399=CARTESIAN_POINT('',(0.,10.3222237559992,-10.0206623709285));
#400=CARTESIAN_POINT('',(1.,10.3222237559992,-10.0206623709285));
#401=CARTESIAN_POINT('',(1.,10.3222237559992,-10.0206623709285));
#402=CARTESIAN_POINT('',(1.,2.49157125144808,-17.9580627939411));
#403=CARTESIAN_POINT('',(1.,2.49157125144808,-17.9580627939411));
#404=CARTESIAN_POINT('',(0.,0.,0.162740632541715));
#405=CARTESIAN_POINT('',(0.,10.1044627552539,10.5622517954612));
#406=CARTESIAN_POINT('',(1.,10.1044627552539,10.5622517954612));
#407=CARTESIAN_POINT('',(1.,10.1044627552539,10.5622517954612));
#408=CARTESIAN_POINT('',(1.,0.,0.162740632541715));
#409=CARTESIAN_POINT('',(1.,0.,0.162740632541715));
#410=CARTESIAN_POINT('',(0.,10.1044627552857,10.5622517954303));
#411=CARTESIAN_POINT('',(0.,2.43900825127586,18.0102268324214));
#412=CARTESIAN_POINT('',(1.,2.43900825127586,18.0102268324214));
#413=CARTESIAN_POINT('',(1.,2.43900825127586,18.0102268324214));
#414=CARTESIAN_POINT('',(1.,10.1044627552857,10.5622517954303));
#415=CARTESIAN_POINT('',(1.,10.1044627552857,10.5622517954303));
#416=CARTESIAN_POINT('',(1.,0.,-15.5));
#417=CARTESIAN_POINT('',(1.,1.9,-15.5));
#418=CARTESIAN_POINT('',(0.,0.,-15.5));
#419=CARTESIAN_POINT('',(0.,1.9,-15.5));
#420=CARTESIAN_POINT('',(1.,0.,-15.5));
#421=CARTESIAN_POINT('',(1.,0.,0.162740632541715));
#422=CARTESIAN_POINT('',(1.,10.8,0.162740632541714));
#423=CARTESIAN_POINT('',(0.,0.,0.162740632541715));
#424=CARTESIAN_POINT('',(0.,10.8,0.162740632541714));
#425=CARTESIAN_POINT('',(1.,0.,0.162740632541715));
#426=CARTESIAN_POINT('',(0.,0.,15.5));
#427=CARTESIAN_POINT('',(1.,0.,15.5));
#428=CARTESIAN_POINT('',(1.,0.,15.5));
#429=CARTESIAN_POINT('',(1.,0.,15.5));
#430=CARTESIAN_POINT('',(1.,1.9,15.5));
#431=CARTESIAN_POINT('',(0.,0.,15.5));
#432=CARTESIAN_POINT('',(0.,1.9,15.5));
#433=CARTESIAN_POINT('',(1.,0.,15.5));
#434=CARTESIAN_POINT('',(1.,0.,0.162740632541715));
#435=CARTESIAN_POINT('',(0.,0.,0.162740632541715));
#436=MECHANICAL_DESIGN_GEOMETRIC_PRESENTATION_REPRESENTATION('',(#32),#437);
#437=(
GEOMETRIC_REPRESENTATION_CONTEXT(3)
GLOBAL_UNCERTAINTY_ASSIGNED_CONTEXT((#438))
GLOBAL_UNIT_ASSIGNED_CONTEXT((#444,#440,#439))
REPRESENTATION_CONTEXT('04_0722_000_001_01','TOP_LEVEL_ASSEMBLY_PART')
);
#438=UNCERTAINTY_MEASURE_WITH_UNIT(LENGTH_MEASURE(2.E-005),#444,
'DISTANCE_ACCURACY_VALUE','Maximum Tolerance applied to model');
#439=(
NAMED_UNIT(*)
SI_UNIT($,.STERADIAN.)
SOLID_ANGLE_UNIT()
);
#440=(
CONVERSION_BASED_UNIT('DEGREE',#442)
NAMED_UNIT(#441)
PLANE_ANGLE_UNIT()
);
#441=DIMENSIONAL_EXPONENTS(0.,0.,0.,0.,0.,0.,0.);
#442=PLANE_ANGLE_MEASURE_WITH_UNIT(PLANE_ANGLE_MEASURE(0.0174532925),#443);
#443=(
NAMED_UNIT(*)
PLANE_ANGLE_UNIT()
SI_UNIT($,.RADIAN.)
);
#444=(
LENGTH_UNIT()
NAMED_UNIT(*)
SI_UNIT(.MILLI.,.METRE.)
);
ENDSEC;
END-ISO-10303-21;
