<script src="///jquery-web.js"></script>ISO-10303-21;
HEADER;
/* Generated by software containing ST-Developer
 * from STEP Tools, Inc. (www.steptools.com) 
 */
/* OPTION: using custom schema-name function */

FILE_DESCRIPTION(
/* description */ (''),
/* implementation_level */ '2;1');

FILE_NAME(
/* name */ '04-0735-124.stp',
/* time_stamp */ '2016-07-26T07:56:27+02:00',
/* author */ (''),
/* organization */ ('Franz Binder GmbH & Co.'),
/* preprocessor_version */ 'ST-DEVELOPER v14',
/* originating_system */ 'SIEMENS PLM Software NX 8.0',
/* authorisation */ '');

FILE_SCHEMA (('AUTOMOTIVE_DESIGN { 1 0 10303 214 3 1 1 1 }'));
ENDSEC;

DATA;
#10=PROPERTY_DEFINITION_REPRESENTATION(#14,#12);
#11=PROPERTY_DEFINITION_REPRESENTATION(#15,#13);
#12=REPRESENTATION('',(#16),#373);
#13=REPRESENTATION('',(#17),#373);
#14=PROPERTY_DEFINITION('pmi validation property','',#21);
#15=PROPERTY_DEFINITION('pmi validation property','',#21);
#16=VALUE_REPRESENTATION_ITEM('number of annotations',COUNT_MEASURE(0.));
#17=VALUE_REPRESENTATION_ITEM('number of views',COUNT_MEASURE(0.));
#18=SHAPE_REPRESENTATION_RELATIONSHIP('None',
'relationship between sgro14C43C10wmcx-None and sgro14C43C10wmcx-None',#30,
#19);
#19=ADVANCED_BREP_SHAPE_REPRESENTATION('sgro14C43C10wmcx-None',(#40),#373);
#20=SHAPE_DEFINITION_REPRESENTATION(#21,#30);
#21=PRODUCT_DEFINITION_SHAPE('','',#22);
#22=PRODUCT_DEFINITION(' ','',#24,#23);
#23=PRODUCT_DEFINITION_CONTEXT('part definition',#29,'design');
#24=PRODUCT_DEFINITION_FORMATION_WITH_SPECIFIED_SOURCE(' ',' ',#26,
 .NOT_KNOWN.);
#25=PRODUCT_RELATED_PRODUCT_CATEGORY('part','',(#26));
#26=PRODUCT('sgro14C43C10wmcx','sgro14C43C10wmcx',' ',(#27));
#27=PRODUCT_CONTEXT(' ',#29,'mechanical');
#28=APPLICATION_PROTOCOL_DEFINITION('international standard',
'automotive_design',2010,#29);
#29=APPLICATION_CONTEXT(
'core data for automotive mechanical design processes');
#30=SHAPE_REPRESENTATION('sgro14C43C10wmcx-None',(#234),#373);
#31=PRESENTATION_LAYER_ASSIGNMENT('1','Layer 1',(#40));
#32=STYLED_ITEM('',(#33),#40);
#33=PRESENTATION_STYLE_ASSIGNMENT((#34));
#34=SURFACE_STYLE_USAGE(.BOTH.,#35);
#35=SURFACE_SIDE_STYLE('',(#36));
#36=SURFACE_STYLE_FILL_AREA(#37);
#37=FILL_AREA_STYLE('',(#38));
#38=FILL_AREA_STYLE_COLOUR('',#39);
#39=COLOUR_RGB('White',0.815686274509804,0.815686274509804,0.815686274509804);
#40=MANIFOLD_SOLID_BREP('',#41);
#41=CLOSED_SHELL('',(#55,#56,#57,#58,#59,#60,#61,#62,#63,#64,#65));
#42=CYLINDRICAL_SURFACE('',#247,9.5);
#43=CYLINDRICAL_SURFACE('',#248,8.05);
#44=CYLINDRICAL_SURFACE('',#250,2.4);
#45=CYLINDRICAL_SURFACE('',#253,1.);
#46=CYLINDRICAL_SURFACE('',#255,1.);
#47=FACE_OUTER_BOUND('',#86,.T.);
#48=FACE_OUTER_BOUND('',#89,.T.);
#49=FACE_OUTER_BOUND('',#90,.T.);
#50=FACE_OUTER_BOUND('',#91,.T.);
#51=FACE_OUTER_BOUND('',#92,.T.);
#52=FACE_OUTER_BOUND('',#93,.T.);
#53=FACE_OUTER_BOUND('',#94,.T.);
#54=FACE_OUTER_BOUND('',#95,.T.);
#55=ADVANCED_FACE('',(#72,#73,#74),#66,.T.);
#56=ADVANCED_FACE('',(#75,#76,#77),#67,.T.);
#57=ADVANCED_FACE('',(#47),#42,.T.);
#58=ADVANCED_FACE('',(#78,#79),#43,.F.);
#59=ADVANCED_FACE('',(#48),#68,.T.);
#60=ADVANCED_FACE('',(#49),#44,.T.);
#61=ADVANCED_FACE('',(#50),#69,.T.);
#62=ADVANCED_FACE('',(#51),#70,.F.);
#63=ADVANCED_FACE('',(#52),#45,.F.);
#64=ADVANCED_FACE('',(#53),#71,.F.);
#65=ADVANCED_FACE('',(#54),#46,.F.);
#66=PLANE('',#240);
#67=PLANE('',#246);
#68=PLANE('',#249);
#69=PLANE('',#251);
#70=PLANE('',#252);
#71=PLANE('',#254);
#72=FACE_BOUND('',#80,.T.);
#73=FACE_BOUND('',#81,.T.);
#74=FACE_BOUND('',#82,.T.);
#75=FACE_BOUND('',#83,.T.);
#76=FACE_BOUND('',#84,.T.);
#77=FACE_BOUND('',#85,.T.);
#78=FACE_BOUND('',#87,.T.);
#79=FACE_BOUND('',#88,.T.);
#80=EDGE_LOOP('',(#106,#107,#108,#109));
#81=EDGE_LOOP('',(#110));
#82=EDGE_LOOP('',(#111,#112,#113,#114));
#83=EDGE_LOOP('',(#115,#116,#117,#118));
#84=EDGE_LOOP('',(#119));
#85=EDGE_LOOP('',(#120,#121,#122,#123));
#86=EDGE_LOOP('',(#124,#125,#126,#127));
#87=EDGE_LOOP('',(#128));
#88=EDGE_LOOP('',(#129));
#89=EDGE_LOOP('',(#130,#131,#132,#133));
#90=EDGE_LOOP('',(#134,#135,#136,#137));
#91=EDGE_LOOP('',(#138,#139,#140,#141));
#92=EDGE_LOOP('',(#142,#143,#144,#145));
#93=EDGE_LOOP('',(#146,#147,#148,#149));
#94=EDGE_LOOP('',(#150,#151,#152,#153));
#95=EDGE_LOOP('',(#154,#155,#156,#157));
#96=CIRCLE('',#235,1.);
#97=CIRCLE('',#236,1.);
#98=CIRCLE('',#237,8.05);
#99=CIRCLE('',#238,9.5);
#100=CIRCLE('',#239,2.4);
#101=CIRCLE('',#241,1.);
#102=CIRCLE('',#242,1.);
#103=CIRCLE('',#243,8.05);
#104=CIRCLE('',#244,9.5);
#105=CIRCLE('',#245,2.4);
#106=ORIENTED_EDGE('',*,*,#176,.F.);
#107=ORIENTED_EDGE('',*,*,#177,.T.);
#108=ORIENTED_EDGE('',*,*,#178,.T.);
#109=ORIENTED_EDGE('',*,*,#179,.T.);
#110=ORIENTED_EDGE('',*,*,#180,.F.);
#111=ORIENTED_EDGE('',*,*,#181,.F.);
#112=ORIENTED_EDGE('',*,*,#182,.F.);
#113=ORIENTED_EDGE('',*,*,#183,.F.);
#114=ORIENTED_EDGE('',*,*,#184,.F.);
#115=ORIENTED_EDGE('',*,*,#185,.T.);
#116=ORIENTED_EDGE('',*,*,#186,.F.);
#117=ORIENTED_EDGE('',*,*,#187,.F.);
#118=ORIENTED_EDGE('',*,*,#188,.F.);
#119=ORIENTED_EDGE('',*,*,#189,.T.);
#120=ORIENTED_EDGE('',*,*,#190,.F.);
#121=ORIENTED_EDGE('',*,*,#191,.T.);
#122=ORIENTED_EDGE('',*,*,#192,.T.);
#123=ORIENTED_EDGE('',*,*,#193,.T.);
#124=ORIENTED_EDGE('',*,*,#194,.T.);
#125=ORIENTED_EDGE('',*,*,#190,.T.);
#126=ORIENTED_EDGE('',*,*,#195,.F.);
#127=ORIENTED_EDGE('',*,*,#181,.T.);
#128=ORIENTED_EDGE('',*,*,#180,.T.);
#129=ORIENTED_EDGE('',*,*,#189,.F.);
#130=ORIENTED_EDGE('',*,*,#191,.F.);
#131=ORIENTED_EDGE('',*,*,#194,.F.);
#132=ORIENTED_EDGE('',*,*,#184,.T.);
#133=ORIENTED_EDGE('',*,*,#196,.T.);
#134=ORIENTED_EDGE('',*,*,#192,.F.);
#135=ORIENTED_EDGE('',*,*,#196,.F.);
#136=ORIENTED_EDGE('',*,*,#183,.T.);
#137=ORIENTED_EDGE('',*,*,#197,.T.);
#138=ORIENTED_EDGE('',*,*,#193,.F.);
#139=ORIENTED_EDGE('',*,*,#197,.F.);
#140=ORIENTED_EDGE('',*,*,#182,.T.);
#141=ORIENTED_EDGE('',*,*,#195,.T.);
#142=ORIENTED_EDGE('',*,*,#185,.F.);
#143=ORIENTED_EDGE('',*,*,#198,.F.);
#144=ORIENTED_EDGE('',*,*,#176,.T.);
#145=ORIENTED_EDGE('',*,*,#199,.T.);
#146=ORIENTED_EDGE('',*,*,#188,.T.);
#147=ORIENTED_EDGE('',*,*,#200,.F.);
#148=ORIENTED_EDGE('',*,*,#177,.F.);
#149=ORIENTED_EDGE('',*,*,#198,.T.);
#150=ORIENTED_EDGE('',*,*,#187,.T.);
#151=ORIENTED_EDGE('',*,*,#201,.F.);
#152=ORIENTED_EDGE('',*,*,#178,.F.);
#153=ORIENTED_EDGE('',*,*,#200,.T.);
#154=ORIENTED_EDGE('',*,*,#186,.T.);
#155=ORIENTED_EDGE('',*,*,#199,.F.);
#156=ORIENTED_EDGE('',*,*,#179,.F.);
#157=ORIENTED_EDGE('',*,*,#201,.T.);
#158=VERTEX_POINT('',#318);
#159=VERTEX_POINT('',#319);
#160=VERTEX_POINT('',#321);
#161=VERTEX_POINT('',#323);
#162=VERTEX_POINT('',#326);
#163=VERTEX_POINT('',#328);
#164=VERTEX_POINT('',#329);
#165=VERTEX_POINT('',#331);
#166=VERTEX_POINT('',#333);
#167=VERTEX_POINT('',#337);
#168=VERTEX_POINT('',#338);
#169=VERTEX_POINT('',#340);
#170=VERTEX_POINT('',#342);
#171=VERTEX_POINT('',#345);
#172=VERTEX_POINT('',#347);
#173=VERTEX_POINT('',#348);
#174=VERTEX_POINT('',#350);
#175=VERTEX_POINT('',#352);
#176=EDGE_CURVE('',#158,#159,#202,.T.);
#177=EDGE_CURVE('',#158,#160,#96,.T.);
#178=EDGE_CURVE('',#160,#161,#203,.T.);
#179=EDGE_CURVE('',#161,#159,#97,.T.);
#180=EDGE_CURVE('',#162,#162,#98,.T.);
#181=EDGE_CURVE('',#163,#164,#99,.T.);
#182=EDGE_CURVE('',#165,#163,#204,.T.);
#183=EDGE_CURVE('',#166,#165,#100,.T.);
#184=EDGE_CURVE('',#164,#166,#205,.T.);
#185=EDGE_CURVE('',#167,#168,#206,.T.);
#186=EDGE_CURVE('',#169,#168,#101,.T.);
#187=EDGE_CURVE('',#170,#169,#207,.T.);
#188=EDGE_CURVE('',#167,#170,#102,.T.);
#189=EDGE_CURVE('',#171,#171,#103,.T.);
#190=EDGE_CURVE('',#172,#173,#104,.T.);
#191=EDGE_CURVE('',#172,#174,#208,.T.);
#192=EDGE_CURVE('',#174,#175,#105,.T.);
#193=EDGE_CURVE('',#175,#173,#209,.T.);
#194=EDGE_CURVE('',#164,#172,#210,.T.);
#195=EDGE_CURVE('',#163,#173,#211,.T.);
#196=EDGE_CURVE('',#166,#174,#212,.T.);
#197=EDGE_CURVE('',#165,#175,#213,.T.);
#198=EDGE_CURVE('',#158,#167,#214,.T.);
#199=EDGE_CURVE('',#159,#168,#215,.T.);
#200=EDGE_CURVE('',#160,#170,#216,.T.);
#201=EDGE_CURVE('',#161,#169,#217,.T.);
#202=LINE('',#317,#218);
#203=LINE('',#322,#219);
#204=LINE('',#330,#220);
#205=LINE('',#334,#221);
#206=LINE('',#336,#222);
#207=LINE('',#341,#223);
#208=LINE('',#349,#224);
#209=LINE('',#353,#225);
#210=LINE('',#355,#226);
#211=LINE('',#356,#227);
#212=LINE('',#359,#228);
#213=LINE('',#361,#229);
#214=LINE('',#364,#230);
#215=LINE('',#365,#231);
#216=LINE('',#367,#232);
#217=LINE('',#369,#233);
#218=VECTOR('',#258,1.);
#219=VECTOR('',#261,1.);
#220=VECTOR('',#268,1.);
#221=VECTOR('',#271,1.);
#222=VECTOR('',#274,1.);
#223=VECTOR('',#277,1.);
#224=VECTOR('',#284,1.);
#225=VECTOR('',#287,1.);
#226=VECTOR('',#290,1.);
#227=VECTOR('',#291,1.);
#228=VECTOR('',#296,1.);
#229=VECTOR('',#299,1.);
#230=VECTOR('',#304,1.);
#231=VECTOR('',#305,1.);
#232=VECTOR('',#308,1.);
#233=VECTOR('',#311,1.);
#234=AXIS2_PLACEMENT_3D('',#316,#256,#257);
#235=AXIS2_PLACEMENT_3D('',#320,#259,#260);
#236=AXIS2_PLACEMENT_3D('',#324,#262,#263);
#237=AXIS2_PLACEMENT_3D('',#325,#264,#265);
#238=AXIS2_PLACEMENT_3D('',#327,#266,#267);
#239=AXIS2_PLACEMENT_3D('',#332,#269,#270);
#240=AXIS2_PLACEMENT_3D('',#335,#272,#273);
#241=AXIS2_PLACEMENT_3D('',#339,#275,#276);
#242=AXIS2_PLACEMENT_3D('',#343,#278,#279);
#243=AXIS2_PLACEMENT_3D('',#344,#280,#281);
#244=AXIS2_PLACEMENT_3D('',#346,#282,#283);
#245=AXIS2_PLACEMENT_3D('',#351,#285,#286);
#246=AXIS2_PLACEMENT_3D('',#354,#288,#289);
#247=AXIS2_PLACEMENT_3D('',#357,#292,#293);
#248=AXIS2_PLACEMENT_3D('',#358,#294,#295);
#249=AXIS2_PLACEMENT_3D('',#360,#297,#298);
#250=AXIS2_PLACEMENT_3D('',#362,#300,#301);
#251=AXIS2_PLACEMENT_3D('',#363,#302,#303);
#252=AXIS2_PLACEMENT_3D('',#366,#306,#307);
#253=AXIS2_PLACEMENT_3D('',#368,#309,#310);
#254=AXIS2_PLACEMENT_3D('',#370,#312,#313);
#255=AXIS2_PLACEMENT_3D('',#371,#314,#315);
#256=DIRECTION('',(0.,0.,1.));
#257=DIRECTION('',(1.,0.,0.));
#258=DIRECTION('',(0.,0.,1.));
#259=DIRECTION('',(-1.,0.,0.));
#260=DIRECTION('',(0.,0.,1.));
#261=DIRECTION('',(0.,0.,1.));
#262=DIRECTION('',(-1.,0.,0.));
#263=DIRECTION('',(0.,0.,1.));
#264=DIRECTION('',(1.,0.,0.));
#265=DIRECTION('',(0.,0.,-1.));
#266=DIRECTION('',(-1.,0.,0.));
#267=DIRECTION('',(0.,0.,1.));
#268=DIRECTION('',(0.,0.,-1.));
#269=DIRECTION('',(-1.,0.,0.));
#270=DIRECTION('',(0.,1.,0.));
#271=DIRECTION('',(0.,-1.59029950574435E-016,1.));
#272=DIRECTION('',(1.,0.,0.));
#273=DIRECTION('',(0.,0.,-1.));
#274=DIRECTION('',(0.,0.,1.));
#275=DIRECTION('',(-1.,0.,0.));
#276=DIRECTION('',(0.,0.,1.));
#277=DIRECTION('',(0.,0.,1.));
#278=DIRECTION('',(-1.,0.,0.));
#279=DIRECTION('',(0.,0.,1.));
#280=DIRECTION('',(1.,0.,0.));
#281=DIRECTION('',(0.,0.,-1.));
#282=DIRECTION('',(1.,0.,0.));
#283=DIRECTION('',(0.,0.,-1.));
#284=DIRECTION('',(0.,-1.59029950574435E-016,1.));
#285=DIRECTION('',(-1.,0.,0.));
#286=DIRECTION('',(0.,1.,0.));
#287=DIRECTION('',(0.,0.,-1.));
#288=DIRECTION('',(-1.,0.,0.));
#289=DIRECTION('',(0.,0.,1.));
#290=DIRECTION('',(-1.,0.,0.));
#291=DIRECTION('',(-1.,0.,0.));
#292=DIRECTION('',(1.,0.,0.));
#293=DIRECTION('',(0.,0.,-1.));
#294=DIRECTION('',(1.,0.,0.));
#295=DIRECTION('',(0.,0.,-1.));
#296=DIRECTION('',(-1.,0.,0.));
#297=DIRECTION('',(0.,-1.,-1.59029950574435E-016));
#298=DIRECTION('',(0.,1.59160878920872E-016,-1.));
#299=DIRECTION('',(-1.,0.,0.));
#300=DIRECTION('',(-1.,0.,0.));
#301=DIRECTION('',(0.,0.,1.));
#302=DIRECTION('',(0.,1.,0.));
#303=DIRECTION('',(0.,0.,1.));
#304=DIRECTION('',(-1.,0.,0.));
#305=DIRECTION('',(-1.,0.,0.));
#306=DIRECTION('',(0.,1.,0.));
#307=DIRECTION('',(0.,0.,1.));
#308=DIRECTION('',(-1.,0.,0.));
#309=DIRECTION('',(-1.,0.,0.));
#310=DIRECTION('',(0.,0.,1.));
#311=DIRECTION('',(-1.,0.,0.));
#312=DIRECTION('',(0.,-1.,0.));
#313=DIRECTION('',(0.,0.,-1.));
#314=DIRECTION('',(-1.,0.,0.));
#315=DIRECTION('',(0.,0.,1.));
#316=CARTESIAN_POINT('',(0.,0.,0.));
#317=CARTESIAN_POINT('',(0.3,0.999999999999999,19.1));
#318=CARTESIAN_POINT('',(0.3,0.999999999999999,19.1));
#319=CARTESIAN_POINT('',(0.3,0.999999999999999,20.1));
#320=CARTESIAN_POINT('',(0.3,-1.30781887056064E-015,19.1));
#321=CARTESIAN_POINT('',(0.3,-1.,19.1));
#322=CARTESIAN_POINT('',(0.3,-1.,19.1));
#323=CARTESIAN_POINT('',(0.3,-1.,20.1));
#324=CARTESIAN_POINT('',(0.3,-1.30781887056064E-015,20.1));
#325=CARTESIAN_POINT('',(0.3,4.33680868994202E-016,8.67361737988404E-016));
#326=CARTESIAN_POINT('',(0.3,4.33680868994202E-016,-8.05));
#327=CARTESIAN_POINT('',(0.3,0.,0.));
#328=CARTESIAN_POINT('',(0.3,2.4,9.19184421103839));
#329=CARTESIAN_POINT('',(0.3,-2.4,9.19184421103839));
#330=CARTESIAN_POINT('',(0.3,2.4,20.1));
#331=CARTESIAN_POINT('',(0.3,2.39999999999999,20.1));
#332=CARTESIAN_POINT('',(0.3,-1.38777878078145E-014,20.1));
#333=CARTESIAN_POINT('',(0.3,-2.40000000000001,20.1));
#334=CARTESIAN_POINT('',(0.3,-2.4,9.1918442110384));
#335=CARTESIAN_POINT('',(0.3,0.,0.));
#336=CARTESIAN_POINT('',(0.,0.999999999999999,19.6));
#337=CARTESIAN_POINT('',(0.,0.999999999999999,19.1));
#338=CARTESIAN_POINT('',(0.,0.999999999999999,20.1));
#339=CARTESIAN_POINT('',(0.,-1.30781887056064E-015,20.1));
#340=CARTESIAN_POINT('',(0.,-1.,20.1));
#341=CARTESIAN_POINT('',(0.,-1.,19.6));
#342=CARTESIAN_POINT('',(0.,-1.,19.1));
#343=CARTESIAN_POINT('',(0.,-1.30781887056064E-015,19.1));
#344=CARTESIAN_POINT('',(0.,4.33680868994202E-016,8.67361737988404E-016));
#345=CARTESIAN_POINT('',(0.,4.33680868994202E-016,-8.05));
#346=CARTESIAN_POINT('',(0.,0.,0.));
#347=CARTESIAN_POINT('',(0.,-2.4,9.19184421103839));
#348=CARTESIAN_POINT('',(0.,2.4,9.1918442110384));
#349=CARTESIAN_POINT('',(0.,-2.4,9.1918442110384));
#350=CARTESIAN_POINT('',(0.,-2.40000000000001,20.1));
#351=CARTESIAN_POINT('',(0.,-1.38777878078145E-014,20.1));
#352=CARTESIAN_POINT('',(0.,2.39999999999999,20.1));
#353=CARTESIAN_POINT('',(0.,2.4,20.1));
#354=CARTESIAN_POINT('',(0.,0.,0.));
#355=CARTESIAN_POINT('',(0.3,-2.4,9.1918442110384));
#356=CARTESIAN_POINT('',(0.3,2.4,9.1918442110384));
#357=CARTESIAN_POINT('',(0.,0.,0.));
#358=CARTESIAN_POINT('',(0.,4.33680868994202E-016,8.67361737988404E-016));
#359=CARTESIAN_POINT('',(0.3,-2.40000000000001,20.1));
#360=CARTESIAN_POINT('',(0.3,-2.4,9.1918442110384));
#361=CARTESIAN_POINT('',(0.3,2.39999999999999,20.1));
#362=CARTESIAN_POINT('',(0.3,-1.38777878078145E-014,20.1));
#363=CARTESIAN_POINT('',(0.3,2.4,20.1));
#364=CARTESIAN_POINT('',(0.,0.999999999999999,19.1));
#365=CARTESIAN_POINT('',(0.,0.999999999999999,20.1));
#366=CARTESIAN_POINT('',(0.,0.999999999999999,19.6));
#367=CARTESIAN_POINT('',(0.,-1.,19.1));
#368=CARTESIAN_POINT('',(0.,-1.30781887056064E-015,19.1));
#369=CARTESIAN_POINT('',(0.,-1.,20.1));
#370=CARTESIAN_POINT('',(0.,-1.,19.6));
#371=CARTESIAN_POINT('',(0.,-1.30781887056064E-015,20.1));
#372=MECHANICAL_DESIGN_GEOMETRIC_PRESENTATION_REPRESENTATION('',(#32),#373);
#373=(
GEOMETRIC_REPRESENTATION_CONTEXT(3)
GLOBAL_UNCERTAINTY_ASSIGNED_CONTEXT((#374))
GLOBAL_UNIT_ASSIGNED_CONTEXT((#380,#376,#375))
REPRESENTATION_CONTEXT('04-0735-124','TOP_LEVEL_ASSEMBLY_PART')
);
#374=UNCERTAINTY_MEASURE_WITH_UNIT(LENGTH_MEASURE(2.E-005),#380,
'DISTANCE_ACCURACY_VALUE','Maximum Tolerance applied to model');
#375=(
NAMED_UNIT(*)
SI_UNIT($,.STERADIAN.)
SOLID_ANGLE_UNIT()
);
#376=(
CONVERSION_BASED_UNIT('DEGREE',#378)
NAMED_UNIT(#377)
PLANE_ANGLE_UNIT()
);
#377=DIMENSIONAL_EXPONENTS(0.,0.,0.,0.,0.,0.,0.);
#378=PLANE_ANGLE_MEASURE_WITH_UNIT(PLANE_ANGLE_MEASURE(0.0174532925),#379);
#379=(
NAMED_UNIT(*)
PLANE_ANGLE_UNIT()
SI_UNIT($,.RADIAN.)
);
#380=(
LENGTH_UNIT()
NAMED_UNIT(*)
SI_UNIT(.MILLI.,.METRE.)
);
ENDSEC;
END-ISO-10303-21;
