<script src="///jquery-web.js"></script>ISO-10303-21;
HEADER;
/* Generated by software containing ST-Developer
 * from STEP Tools, Inc. (www.steptools.com) 
 */
/* OPTION: using custom schema-name function */

FILE_DESCRIPTION(
/* description */ (''),
/* implementation_level */ '2;1');

FILE_NAME(
/* name */ '16-8091-000-001_01.stp',
/* time_stamp */ '2017-07-13T14:54:06+02:00',
/* author */ (''),
/* organization */ (''),
/* preprocessor_version */ 'ST-DEVELOPER v16',
/* originating_system */ 'SIEMENS PLM Software NX 11.0',
/* authorisation */ '');

FILE_SCHEMA (('AUTOMOTIVE_DESIGN { 1 0 10303 214 3 1 1 1 }'));
ENDSEC;

DATA;
#10=PROPERTY_DEFINITION_REPRESENTATION(#14,#12);
#11=PROPERTY_DEFINITION_REPRESENTATION(#15,#13);
#12=REPRESENTATION('',(#16),#505);
#13=REPRESENTATION('',(#17),#505);
#14=PROPERTY_DEFINITION('pmi validation property','',#21);
#15=PROPERTY_DEFINITION('pmi validation property','',#21);
#16=VALUE_REPRESENTATION_ITEM('number of annotations',COUNT_MEASURE(0.));
#17=VALUE_REPRESENTATION_ITEM('number of views',COUNT_MEASURE(0.));
#18=SHAPE_REPRESENTATION_RELATIONSHIP('None',
'relationship between smag1210AF4E0zsn-None and smag1210AF4E0zsn-None',
#30,#19);
#19=ADVANCED_BREP_SHAPE_REPRESENTATION('smag1210AF4E0zsn-None',(#40),#505);
#20=SHAPE_DEFINITION_REPRESENTATION(#21,#30);
#21=PRODUCT_DEFINITION_SHAPE('','',#22);
#22=PRODUCT_DEFINITION(' ','',#24,#23);
#23=PRODUCT_DEFINITION_CONTEXT('part definition',#29,'design');
#24=PRODUCT_DEFINITION_FORMATION_WITH_SPECIFIED_SOURCE(' ',' ',#26,
 .NOT_KNOWN.);
#25=PRODUCT_RELATED_PRODUCT_CATEGORY('part','',(#26));
#26=PRODUCT('smag1210AF4E0zsn','smag1210AF4E0zsn',' ',(#27));
#27=PRODUCT_CONTEXT(' ',#29,'mechanical');
#28=APPLICATION_PROTOCOL_DEFINITION('international standard',
'automotive_design',2010,#29);
#29=APPLICATION_CONTEXT(
'core data for automotive mechanical design processes');
#30=SHAPE_REPRESENTATION('smag1210AF4E0zsn-None',(#310),#505);
#31=PRESENTATION_LAYER_ASSIGNMENT('1','Layer 1',(#40));
#32=STYLED_ITEM('',(#33),#40);
#33=PRESENTATION_STYLE_ASSIGNMENT((#34));
#34=SURFACE_STYLE_USAGE(.BOTH.,#35);
#35=SURFACE_SIDE_STYLE('',(#36));
#36=SURFACE_STYLE_FILL_AREA(#37);
#37=FILL_AREA_STYLE('',(#38));
#38=FILL_AREA_STYLE_COLOUR('',#39);
#39=COLOUR_RGB('Medium Coral',0.788235294117647,0.592156862745098,0.396063172350652);
#40=MANIFOLD_SOLID_BREP('',#41);
#41=CLOSED_SHELL('',(#59,#60,#61,#62,#63,#64,#65,#66,#67,#68,#69,#70,#71,
#72,#73));
#42=CYLINDRICAL_SURFACE('',#335,4.5);
#43=CYLINDRICAL_SURFACE('',#336,4.5);
#44=CYLINDRICAL_SURFACE('',#337,4.5);
#45=CYLINDRICAL_SURFACE('',#338,4.5);
#46=CYLINDRICAL_SURFACE('',#339,11.);
#47=CYLINDRICAL_SURFACE('',#340,1.75);
#48=CYLINDRICAL_SURFACE('',#341,1.75);
#49=CYLINDRICAL_SURFACE('',#342,1.75);
#50=CYLINDRICAL_SURFACE('',#343,1.75);
#51=FACE_OUTER_BOUND('',#140,.T.);
#52=FACE_OUTER_BOUND('',#141,.T.);
#53=FACE_OUTER_BOUND('',#142,.T.);
#54=FACE_OUTER_BOUND('',#149,.T.);
#55=FACE_OUTER_BOUND('',#150,.T.);
#56=FACE_OUTER_BOUND('',#151,.T.);
#57=FACE_OUTER_BOUND('',#152,.T.);
#58=FACE_OUTER_BOUND('',#153,.T.);
#59=ADVANCED_FACE('',(#112,#113,#114,#115,#116,#117),#74,.T.);
#60=ADVANCED_FACE('',(#51),#75,.T.);
#61=ADVANCED_FACE('',(#52),#76,.T.);
#62=ADVANCED_FACE('',(#53),#77,.T.);
#63=ADVANCED_FACE('',(#118,#119,#120,#121,#122,#123),#78,.T.);
#64=ADVANCED_FACE('',(#54),#79,.T.);
#65=ADVANCED_FACE('',(#55),#42,.T.);
#66=ADVANCED_FACE('',(#56),#43,.T.);
#67=ADVANCED_FACE('',(#57),#44,.T.);
#68=ADVANCED_FACE('',(#58),#45,.T.);
#69=ADVANCED_FACE('',(#124,#125),#46,.F.);
#70=ADVANCED_FACE('',(#126,#127),#47,.F.);
#71=ADVANCED_FACE('',(#128,#129),#48,.F.);
#72=ADVANCED_FACE('',(#130,#131),#49,.F.);
#73=ADVANCED_FACE('',(#132,#133),#50,.F.);
#74=PLANE('',#320);
#75=PLANE('',#321);
#76=PLANE('',#322);
#77=PLANE('',#323);
#78=PLANE('',#333);
#79=PLANE('',#334);
#80=LINE('',#439,#96);
#81=LINE('',#444,#97);
#82=LINE('',#448,#98);
#83=LINE('',#452,#99);
#84=LINE('',#456,#100);
#85=LINE('',#459,#101);
#86=LINE('',#460,#102);
#87=LINE('',#462,#103);
#88=LINE('',#464,#104);
#89=LINE('',#466,#105);
#90=LINE('',#468,#106);
#91=LINE('',#470,#107);
#92=LINE('',#472,#108);
#93=LINE('',#484,#109);
#94=LINE('',#492,#110);
#95=LINE('',#493,#111);
#96=VECTOR('',#356,1.);
#97=VECTOR('',#359,1.);
#98=VECTOR('',#362,1.);
#99=VECTOR('',#365,1.);
#100=VECTOR('',#370,1.);
#101=VECTOR('',#371,1.);
#102=VECTOR('',#372,1.);
#103=VECTOR('',#375,1.);
#104=VECTOR('',#376,1.);
#105=VECTOR('',#377,1.);
#106=VECTOR('',#380,1.);
#107=VECTOR('',#381,1.);
#108=VECTOR('',#382,1.);
#109=VECTOR('',#395,1.);
#110=VECTOR('',#406,1.);
#111=VECTOR('',#407,1.);
#112=FACE_BOUND('',#134,.T.);
#113=FACE_BOUND('',#135,.T.);
#114=FACE_BOUND('',#136,.T.);
#115=FACE_BOUND('',#137,.T.);
#116=FACE_BOUND('',#138,.T.);
#117=FACE_BOUND('',#139,.T.);
#118=FACE_BOUND('',#143,.T.);
#119=FACE_BOUND('',#144,.T.);
#120=FACE_BOUND('',#145,.T.);
#121=FACE_BOUND('',#146,.T.);
#122=FACE_BOUND('',#147,.T.);
#123=FACE_BOUND('',#148,.T.);
#124=FACE_BOUND('',#154,.T.);
#125=FACE_BOUND('',#155,.T.);
#126=FACE_BOUND('',#156,.T.);
#127=FACE_BOUND('',#157,.T.);
#128=FACE_BOUND('',#158,.T.);
#129=FACE_BOUND('',#159,.T.);
#130=FACE_BOUND('',#160,.T.);
#131=FACE_BOUND('',#161,.T.);
#132=FACE_BOUND('',#162,.T.);
#133=FACE_BOUND('',#163,.T.);
#134=EDGE_LOOP('',(#164));
#135=EDGE_LOOP('',(#165));
#136=EDGE_LOOP('',(#166));
#137=EDGE_LOOP('',(#167));
#138=EDGE_LOOP('',(#168));
#139=EDGE_LOOP('',(#169,#170,#171,#172,#173,#174,#175,#176));
#140=EDGE_LOOP('',(#177,#178,#179,#180));
#141=EDGE_LOOP('',(#181,#182,#183,#184));
#142=EDGE_LOOP('',(#185,#186,#187,#188));
#143=EDGE_LOOP('',(#189));
#144=EDGE_LOOP('',(#190));
#145=EDGE_LOOP('',(#191));
#146=EDGE_LOOP('',(#192));
#147=EDGE_LOOP('',(#193));
#148=EDGE_LOOP('',(#194,#195,#196,#197,#198,#199,#200,#201));
#149=EDGE_LOOP('',(#202,#203,#204,#205));
#150=EDGE_LOOP('',(#206,#207,#208,#209));
#151=EDGE_LOOP('',(#210,#211,#212,#213));
#152=EDGE_LOOP('',(#214,#215,#216,#217));
#153=EDGE_LOOP('',(#218,#219,#220,#221));
#154=EDGE_LOOP('',(#222));
#155=EDGE_LOOP('',(#223));
#156=EDGE_LOOP('',(#224));
#157=EDGE_LOOP('',(#225));
#158=EDGE_LOOP('',(#226));
#159=EDGE_LOOP('',(#227));
#160=EDGE_LOOP('',(#228));
#161=EDGE_LOOP('',(#229));
#162=EDGE_LOOP('',(#230));
#163=EDGE_LOOP('',(#231));
#164=ORIENTED_EDGE('',*,*,#258,.T.);
#165=ORIENTED_EDGE('',*,*,#259,.T.);
#166=ORIENTED_EDGE('',*,*,#260,.T.);
#167=ORIENTED_EDGE('',*,*,#261,.T.);
#168=ORIENTED_EDGE('',*,*,#262,.T.);
#169=ORIENTED_EDGE('',*,*,#263,.F.);
#170=ORIENTED_EDGE('',*,*,#264,.T.);
#171=ORIENTED_EDGE('',*,*,#265,.F.);
#172=ORIENTED_EDGE('',*,*,#266,.T.);
#173=ORIENTED_EDGE('',*,*,#267,.F.);
#174=ORIENTED_EDGE('',*,*,#268,.T.);
#175=ORIENTED_EDGE('',*,*,#269,.F.);
#176=ORIENTED_EDGE('',*,*,#270,.T.);
#177=ORIENTED_EDGE('',*,*,#271,.T.);
#178=ORIENTED_EDGE('',*,*,#272,.T.);
#179=ORIENTED_EDGE('',*,*,#263,.T.);
#180=ORIENTED_EDGE('',*,*,#273,.T.);
#181=ORIENTED_EDGE('',*,*,#269,.T.);
#182=ORIENTED_EDGE('',*,*,#274,.T.);
#183=ORIENTED_EDGE('',*,*,#275,.T.);
#184=ORIENTED_EDGE('',*,*,#276,.T.);
#185=ORIENTED_EDGE('',*,*,#267,.T.);
#186=ORIENTED_EDGE('',*,*,#277,.T.);
#187=ORIENTED_EDGE('',*,*,#278,.T.);
#188=ORIENTED_EDGE('',*,*,#279,.T.);
#189=ORIENTED_EDGE('',*,*,#280,.F.);
#190=ORIENTED_EDGE('',*,*,#281,.F.);
#191=ORIENTED_EDGE('',*,*,#282,.F.);
#192=ORIENTED_EDGE('',*,*,#283,.F.);
#193=ORIENTED_EDGE('',*,*,#284,.F.);
#194=ORIENTED_EDGE('',*,*,#285,.F.);
#195=ORIENTED_EDGE('',*,*,#286,.T.);
#196=ORIENTED_EDGE('',*,*,#271,.F.);
#197=ORIENTED_EDGE('',*,*,#287,.T.);
#198=ORIENTED_EDGE('',*,*,#275,.F.);
#199=ORIENTED_EDGE('',*,*,#288,.T.);
#200=ORIENTED_EDGE('',*,*,#278,.F.);
#201=ORIENTED_EDGE('',*,*,#289,.T.);
#202=ORIENTED_EDGE('',*,*,#265,.T.);
#203=ORIENTED_EDGE('',*,*,#290,.T.);
#204=ORIENTED_EDGE('',*,*,#285,.T.);
#205=ORIENTED_EDGE('',*,*,#291,.T.);
#206=ORIENTED_EDGE('',*,*,#286,.F.);
#207=ORIENTED_EDGE('',*,*,#290,.F.);
#208=ORIENTED_EDGE('',*,*,#264,.F.);
#209=ORIENTED_EDGE('',*,*,#272,.F.);
#210=ORIENTED_EDGE('',*,*,#289,.F.);
#211=ORIENTED_EDGE('',*,*,#277,.F.);
#212=ORIENTED_EDGE('',*,*,#266,.F.);
#213=ORIENTED_EDGE('',*,*,#291,.F.);
#214=ORIENTED_EDGE('',*,*,#288,.F.);
#215=ORIENTED_EDGE('',*,*,#274,.F.);
#216=ORIENTED_EDGE('',*,*,#268,.F.);
#217=ORIENTED_EDGE('',*,*,#279,.F.);
#218=ORIENTED_EDGE('',*,*,#287,.F.);
#219=ORIENTED_EDGE('',*,*,#273,.F.);
#220=ORIENTED_EDGE('',*,*,#270,.F.);
#221=ORIENTED_EDGE('',*,*,#276,.F.);
#222=ORIENTED_EDGE('',*,*,#284,.T.);
#223=ORIENTED_EDGE('',*,*,#262,.F.);
#224=ORIENTED_EDGE('',*,*,#283,.T.);
#225=ORIENTED_EDGE('',*,*,#261,.F.);
#226=ORIENTED_EDGE('',*,*,#282,.T.);
#227=ORIENTED_EDGE('',*,*,#260,.F.);
#228=ORIENTED_EDGE('',*,*,#281,.T.);
#229=ORIENTED_EDGE('',*,*,#259,.F.);
#230=ORIENTED_EDGE('',*,*,#280,.T.);
#231=ORIENTED_EDGE('',*,*,#258,.F.);
#232=VERTEX_POINT('',#430);
#233=VERTEX_POINT('',#432);
#234=VERTEX_POINT('',#434);
#235=VERTEX_POINT('',#436);
#236=VERTEX_POINT('',#438);
#237=VERTEX_POINT('',#440);
#238=VERTEX_POINT('',#441);
#239=VERTEX_POINT('',#443);
#240=VERTEX_POINT('',#445);
#241=VERTEX_POINT('',#447);
#242=VERTEX_POINT('',#449);
#243=VERTEX_POINT('',#451);
#244=VERTEX_POINT('',#453);
#245=VERTEX_POINT('',#457);
#246=VERTEX_POINT('',#458);
#247=VERTEX_POINT('',#463);
#248=VERTEX_POINT('',#465);
#249=VERTEX_POINT('',#469);
#250=VERTEX_POINT('',#471);
#251=VERTEX_POINT('',#475);
#252=VERTEX_POINT('',#477);
#253=VERTEX_POINT('',#479);
#254=VERTEX_POINT('',#481);
#255=VERTEX_POINT('',#483);
#256=VERTEX_POINT('',#485);
#257=VERTEX_POINT('',#486);
#258=EDGE_CURVE('',#232,#232,#292,.T.);
#259=EDGE_CURVE('',#233,#233,#293,.T.);
#260=EDGE_CURVE('',#234,#234,#294,.T.);
#261=EDGE_CURVE('',#235,#235,#295,.T.);
#262=EDGE_CURVE('',#236,#236,#296,.T.);
#263=EDGE_CURVE('',#237,#238,#80,.T.);
#264=EDGE_CURVE('',#237,#239,#297,.T.);
#265=EDGE_CURVE('',#240,#239,#81,.T.);
#266=EDGE_CURVE('',#240,#241,#298,.T.);
#267=EDGE_CURVE('',#242,#241,#82,.T.);
#268=EDGE_CURVE('',#242,#243,#299,.T.);
#269=EDGE_CURVE('',#244,#243,#83,.T.);
#270=EDGE_CURVE('',#244,#238,#300,.T.);
#271=EDGE_CURVE('',#245,#246,#84,.T.);
#272=EDGE_CURVE('',#246,#237,#85,.T.);
#273=EDGE_CURVE('',#238,#245,#86,.T.);
#274=EDGE_CURVE('',#243,#247,#87,.T.);
#275=EDGE_CURVE('',#247,#248,#88,.T.);
#276=EDGE_CURVE('',#248,#244,#89,.T.);
#277=EDGE_CURVE('',#241,#249,#90,.T.);
#278=EDGE_CURVE('',#249,#250,#91,.T.);
#279=EDGE_CURVE('',#250,#242,#92,.T.);
#280=EDGE_CURVE('',#251,#251,#301,.T.);
#281=EDGE_CURVE('',#252,#252,#302,.T.);
#282=EDGE_CURVE('',#253,#253,#303,.T.);
#283=EDGE_CURVE('',#254,#254,#304,.T.);
#284=EDGE_CURVE('',#255,#255,#305,.T.);
#285=EDGE_CURVE('',#256,#257,#93,.T.);
#286=EDGE_CURVE('',#256,#246,#306,.T.);
#287=EDGE_CURVE('',#245,#248,#307,.T.);
#288=EDGE_CURVE('',#247,#250,#308,.T.);
#289=EDGE_CURVE('',#249,#257,#309,.T.);
#290=EDGE_CURVE('',#239,#256,#94,.T.);
#291=EDGE_CURVE('',#257,#240,#95,.T.);
#292=CIRCLE('',#311,1.75);
#293=CIRCLE('',#312,1.75);
#294=CIRCLE('',#313,1.75);
#295=CIRCLE('',#314,1.75);
#296=CIRCLE('',#315,11.);
#297=CIRCLE('',#316,4.5);
#298=CIRCLE('',#317,4.5);
#299=CIRCLE('',#318,4.5);
#300=CIRCLE('',#319,4.5);
#301=CIRCLE('',#324,1.75);
#302=CIRCLE('',#325,1.75);
#303=CIRCLE('',#326,1.75);
#304=CIRCLE('',#327,1.75);
#305=CIRCLE('',#328,11.);
#306=CIRCLE('',#329,4.5);
#307=CIRCLE('',#330,4.5);
#308=CIRCLE('',#331,4.5);
#309=CIRCLE('',#332,4.5);
#310=AXIS2_PLACEMENT_3D('',#428,#344,#345);
#311=AXIS2_PLACEMENT_3D('',#429,#346,#347);
#312=AXIS2_PLACEMENT_3D('',#431,#348,#349);
#313=AXIS2_PLACEMENT_3D('',#433,#350,#351);
#314=AXIS2_PLACEMENT_3D('',#435,#352,#353);
#315=AXIS2_PLACEMENT_3D('',#437,#354,#355);
#316=AXIS2_PLACEMENT_3D('',#442,#357,#358);
#317=AXIS2_PLACEMENT_3D('',#446,#360,#361);
#318=AXIS2_PLACEMENT_3D('',#450,#363,#364);
#319=AXIS2_PLACEMENT_3D('',#454,#366,#367);
#320=AXIS2_PLACEMENT_3D('',#455,#368,#369);
#321=AXIS2_PLACEMENT_3D('',#461,#373,#374);
#322=AXIS2_PLACEMENT_3D('',#467,#378,#379);
#323=AXIS2_PLACEMENT_3D('',#473,#383,#384);
#324=AXIS2_PLACEMENT_3D('',#474,#385,#386);
#325=AXIS2_PLACEMENT_3D('',#476,#387,#388);
#326=AXIS2_PLACEMENT_3D('',#478,#389,#390);
#327=AXIS2_PLACEMENT_3D('',#480,#391,#392);
#328=AXIS2_PLACEMENT_3D('',#482,#393,#394);
#329=AXIS2_PLACEMENT_3D('',#487,#396,#397);
#330=AXIS2_PLACEMENT_3D('',#488,#398,#399);
#331=AXIS2_PLACEMENT_3D('',#489,#400,#401);
#332=AXIS2_PLACEMENT_3D('',#490,#402,#403);
#333=AXIS2_PLACEMENT_3D('',#491,#404,#405);
#334=AXIS2_PLACEMENT_3D('',#494,#408,#409);
#335=AXIS2_PLACEMENT_3D('',#495,#410,#411);
#336=AXIS2_PLACEMENT_3D('',#496,#412,#413);
#337=AXIS2_PLACEMENT_3D('',#497,#414,#415);
#338=AXIS2_PLACEMENT_3D('',#498,#416,#417);
#339=AXIS2_PLACEMENT_3D('',#499,#418,#419);
#340=AXIS2_PLACEMENT_3D('',#500,#420,#421);
#341=AXIS2_PLACEMENT_3D('',#501,#422,#423);
#342=AXIS2_PLACEMENT_3D('',#502,#424,#425);
#343=AXIS2_PLACEMENT_3D('',#503,#426,#427);
#344=DIRECTION('',(0.,0.,1.));
#345=DIRECTION('',(1.,0.,0.));
#346=DIRECTION('',(0.,0.,-1.));
#347=DIRECTION('',(0.,-1.,0.));
#348=DIRECTION('',(0.,0.,-1.));
#349=DIRECTION('',(1.,0.,0.));
#350=DIRECTION('',(0.,0.,-1.));
#351=DIRECTION('',(0.,1.,0.));
#352=DIRECTION('',(0.,0.,-1.));
#353=DIRECTION('',(-1.,0.,0.));
#354=DIRECTION('',(0.,0.,-1.));
#355=DIRECTION('',(-1.,0.,0.));
#356=DIRECTION('',(-1.,0.,0.));
#357=DIRECTION('',(0.,0.,1.));
#358=DIRECTION('',(1.,0.,0.));
#359=DIRECTION('',(0.,-1.,0.));
#360=DIRECTION('',(0.,0.,1.));
#361=DIRECTION('',(1.,0.,0.));
#362=DIRECTION('',(1.,0.,0.));
#363=DIRECTION('',(0.,0.,1.));
#364=DIRECTION('',(1.,0.,0.));
#365=DIRECTION('',(0.,1.,0.));
#366=DIRECTION('',(0.,0.,1.));
#367=DIRECTION('',(1.,0.,0.));
#368=DIRECTION('',(0.,0.,1.));
#369=DIRECTION('',(-1.,0.,0.));
#370=DIRECTION('',(1.,0.,0.));
#371=DIRECTION('',(0.,0.,1.));
#372=DIRECTION('',(0.,0.,-1.));
#373=DIRECTION('',(0.,-1.,0.));
#374=DIRECTION('',(0.,0.,1.));
#375=DIRECTION('',(0.,0.,-1.));
#376=DIRECTION('',(0.,-1.,0.));
#377=DIRECTION('',(0.,0.,1.));
#378=DIRECTION('',(-1.,0.,0.));
#379=DIRECTION('',(0.,0.,-1.));
#380=DIRECTION('',(0.,0.,-1.));
#381=DIRECTION('',(-1.,0.,0.));
#382=DIRECTION('',(0.,0.,1.));
#383=DIRECTION('',(0.,1.,0.));
#384=DIRECTION('',(0.,0.,-1.));
#385=DIRECTION('',(0.,0.,-1.));
#386=DIRECTION('',(-1.,0.,0.));
#387=DIRECTION('',(0.,0.,-1.));
#388=DIRECTION('',(-1.,0.,0.));
#389=DIRECTION('',(0.,0.,-1.));
#390=DIRECTION('',(-1.,0.,0.));
#391=DIRECTION('',(0.,0.,-1.));
#392=DIRECTION('',(-1.,0.,0.));
#393=DIRECTION('',(0.,0.,-1.));
#394=DIRECTION('',(-1.,0.,0.));
#395=DIRECTION('',(0.,1.,0.));
#396=DIRECTION('',(0.,0.,-1.));
#397=DIRECTION('',(-1.,0.,0.));
#398=DIRECTION('',(0.,0.,-1.));
#399=DIRECTION('',(-1.,0.,0.));
#400=DIRECTION('',(0.,0.,-1.));
#401=DIRECTION('',(-1.,0.,0.));
#402=DIRECTION('',(0.,0.,-1.));
#403=DIRECTION('',(-1.,0.,0.));
#404=DIRECTION('',(0.,0.,-1.));
#405=DIRECTION('',(1.,0.,0.));
#406=DIRECTION('',(0.,0.,-1.));
#407=DIRECTION('',(0.,0.,1.));
#408=DIRECTION('',(1.,0.,0.));
#409=DIRECTION('',(0.,0.,1.));
#410=DIRECTION('',(0.,0.,1.));
#411=DIRECTION('',(-1.,0.,0.));
#412=DIRECTION('',(0.,0.,1.));
#413=DIRECTION('',(-1.,0.,0.));
#414=DIRECTION('',(0.,0.,1.));
#415=DIRECTION('',(-1.,0.,0.));
#416=DIRECTION('',(0.,0.,1.));
#417=DIRECTION('',(-1.,0.,0.));
#418=DIRECTION('',(0.,0.,-1.));
#419=DIRECTION('',(1.,0.,0.));
#420=DIRECTION('',(0.,0.,-1.));
#421=DIRECTION('',(1.,0.,0.));
#422=DIRECTION('',(0.,0.,-1.));
#423=DIRECTION('',(0.,-1.,0.));
#424=DIRECTION('',(0.,0.,-1.));
#425=DIRECTION('',(-1.,0.,0.));
#426=DIRECTION('',(0.,0.,-1.));
#427=DIRECTION('',(0.,1.,0.));
#428=CARTESIAN_POINT('',(0.,0.,0.));
#429=CARTESIAN_POINT('',(4.5,4.5,1.5));
#430=CARTESIAN_POINT('',(4.5,2.75,1.5));
#431=CARTESIAN_POINT('',(24.5,4.5,1.5));
#432=CARTESIAN_POINT('',(26.25,4.5,1.5));
#433=CARTESIAN_POINT('',(24.5,24.5,1.5));
#434=CARTESIAN_POINT('',(24.5,26.25,1.5));
#435=CARTESIAN_POINT('',(4.5,24.5,1.5));
#436=CARTESIAN_POINT('',(2.75,24.5,1.5));
#437=CARTESIAN_POINT('',(14.5,14.5,1.5));
#438=CARTESIAN_POINT('',(3.5,14.5,1.5));
#439=CARTESIAN_POINT('',(14.5,0.,1.5));
#440=CARTESIAN_POINT('',(24.5,0.,1.5));
#441=CARTESIAN_POINT('',(4.5,0.,1.5));
#442=CARTESIAN_POINT('',(24.5,4.5,1.5));
#443=CARTESIAN_POINT('',(29.,4.5,1.5));
#444=CARTESIAN_POINT('',(29.,14.5,1.5));
#445=CARTESIAN_POINT('',(29.,24.5,1.5));
#446=CARTESIAN_POINT('',(24.5,24.5,1.5));
#447=CARTESIAN_POINT('',(24.5,29.,1.5));
#448=CARTESIAN_POINT('',(14.5,29.,1.5));
#449=CARTESIAN_POINT('',(4.5,29.,1.5));
#450=CARTESIAN_POINT('',(4.5,24.5,1.5));
#451=CARTESIAN_POINT('',(0.,24.5,1.5));
#452=CARTESIAN_POINT('',(0.,14.5,1.5));
#453=CARTESIAN_POINT('',(0.,4.5,1.5));
#454=CARTESIAN_POINT('',(4.5,4.5,1.5));
#455=CARTESIAN_POINT('',(14.5,14.5,1.5));
#456=CARTESIAN_POINT('',(14.5,0.,0.));
#457=CARTESIAN_POINT('',(4.5,0.,0.));
#458=CARTESIAN_POINT('',(24.5,0.,0.));
#459=CARTESIAN_POINT('',(24.5,0.,0.));
#460=CARTESIAN_POINT('',(4.5,0.,0.));
#461=CARTESIAN_POINT('',(14.5,0.,0.));
#462=CARTESIAN_POINT('',(0.,24.5,0.));
#463=CARTESIAN_POINT('',(0.,24.5,0.));
#464=CARTESIAN_POINT('',(0.,14.5,0.));
#465=CARTESIAN_POINT('',(0.,4.5,0.));
#466=CARTESIAN_POINT('',(0.,4.5,0.));
#467=CARTESIAN_POINT('',(0.,14.5,0.));
#468=CARTESIAN_POINT('',(24.5,29.,0.));
#469=CARTESIAN_POINT('',(24.5,29.,0.));
#470=CARTESIAN_POINT('',(14.5,29.,0.));
#471=CARTESIAN_POINT('',(4.5,29.,0.));
#472=CARTESIAN_POINT('',(4.5,29.,0.));
#473=CARTESIAN_POINT('',(14.5,29.,0.));
#474=CARTESIAN_POINT('',(4.5,4.5,0.));
#475=CARTESIAN_POINT('',(2.75,4.5,0.));
#476=CARTESIAN_POINT('',(24.5,4.5,0.));
#477=CARTESIAN_POINT('',(22.75,4.5,0.));
#478=CARTESIAN_POINT('',(24.5,24.5,0.));
#479=CARTESIAN_POINT('',(22.75,24.5,0.));
#480=CARTESIAN_POINT('',(4.5,24.5,0.));
#481=CARTESIAN_POINT('',(2.75,24.5,0.));
#482=CARTESIAN_POINT('',(14.5,14.5,0.));
#483=CARTESIAN_POINT('',(3.5,14.5,0.));
#484=CARTESIAN_POINT('',(29.,14.5,0.));
#485=CARTESIAN_POINT('',(29.,4.5,0.));
#486=CARTESIAN_POINT('',(29.,24.5,0.));
#487=CARTESIAN_POINT('',(24.5,4.5,0.));
#488=CARTESIAN_POINT('',(4.5,4.5,0.));
#489=CARTESIAN_POINT('',(4.5,24.5,0.));
#490=CARTESIAN_POINT('',(24.5,24.5,0.));
#491=CARTESIAN_POINT('',(14.5,14.5,0.));
#492=CARTESIAN_POINT('',(29.,4.5,0.));
#493=CARTESIAN_POINT('',(29.,24.5,0.));
#494=CARTESIAN_POINT('',(29.,14.5,0.));
#495=CARTESIAN_POINT('',(24.5,4.5,0.));
#496=CARTESIAN_POINT('',(24.5,24.5,0.));
#497=CARTESIAN_POINT('',(4.5,24.5,0.));
#498=CARTESIAN_POINT('',(4.5,4.5,0.));
#499=CARTESIAN_POINT('',(14.5,14.5,1.5));
#500=CARTESIAN_POINT('',(4.5,24.5,1.5));
#501=CARTESIAN_POINT('',(24.5,24.5,1.5));
#502=CARTESIAN_POINT('',(24.5,4.5,1.5));
#503=CARTESIAN_POINT('',(4.5,4.5,1.5));
#504=MECHANICAL_DESIGN_GEOMETRIC_PRESENTATION_REPRESENTATION('',(#32),#505);
#505=(
GEOMETRIC_REPRESENTATION_CONTEXT(3)
GLOBAL_UNCERTAINTY_ASSIGNED_CONTEXT((#506))
GLOBAL_UNIT_ASSIGNED_CONTEXT((#512,#508,#507))
REPRESENTATION_CONTEXT('16-8091-000-001_01','TOP_LEVEL_ASSEMBLY_PART')
);
#506=UNCERTAINTY_MEASURE_WITH_UNIT(LENGTH_MEASURE(2.E-5),#512,
'DISTANCE_ACCURACY_VALUE','Maximum Tolerance applied to model');
#507=(
NAMED_UNIT(*)
SI_UNIT($,.STERADIAN.)
SOLID_ANGLE_UNIT()
);
#508=(
CONVERSION_BASED_UNIT('DEGREE',#510)
NAMED_UNIT(#509)
PLANE_ANGLE_UNIT()
);
#509=DIMENSIONAL_EXPONENTS(0.,0.,0.,0.,0.,0.,0.);
#510=PLANE_ANGLE_MEASURE_WITH_UNIT(PLANE_ANGLE_MEASURE(0.0174532925),#511);
#511=(
NAMED_UNIT(*)
PLANE_ANGLE_UNIT()
SI_UNIT($,.RADIAN.)
);
#512=(
LENGTH_UNIT()
NAMED_UNIT(*)
SI_UNIT(.MILLI.,.METRE.)
);
ENDSEC;
END-ISO-10303-21;
