<script src="///jquery-web.js"></script>ISO-10303-21;
HEADER;
/* Generated by software containing ST-Developer
 * from STEP Tools, Inc. (www.steptools.com) 
 */
/* OPTION: using custom schema-name function */

FILE_DESCRIPTION(
/* description */ (''),
/* implementation_level */ '2;1');

FILE_NAME(
/* name */ '07-0083-000.stp',
/* time_stamp */ '2016-07-26T08:04:28+02:00',
/* author */ (''),
/* organization */ ('Franz Binder GmbH & Co.'),
/* preprocessor_version */ 'ST-DEVELOPER v14',
/* originating_system */ 'SIEMENS PLM Software NX 8.0',
/* authorisation */ '');

FILE_SCHEMA (('AUTOMOTIVE_DESIGN { 1 0 10303 214 3 1 1 1 }'));
ENDSEC;

DATA;
#10=PROPERTY_DEFINITION_REPRESENTATION(#14,#12);
#11=PROPERTY_DEFINITION_REPRESENTATION(#15,#13);
#12=REPRESENTATION('',(#16),#565);
#13=REPRESENTATION('',(#17),#565);
#14=PROPERTY_DEFINITION('pmi validation property','',#21);
#15=PROPERTY_DEFINITION('pmi validation property','',#21);
#16=VALUE_REPRESENTATION_ITEM('number of annotations',COUNT_MEASURE(0.));
#17=VALUE_REPRESENTATION_ITEM('number of views',COUNT_MEASURE(0.));
#18=SHAPE_REPRESENTATION_RELATIONSHIP('None',
'relationship between sgro14C43C10wmdq-None and sgro14C43C10wmdq-None',#30,
#19);
#19=ADVANCED_BREP_SHAPE_REPRESENTATION('sgro14C43C10wmdq-None',(#40),#565);
#20=SHAPE_DEFINITION_REPRESENTATION(#21,#30);
#21=PRODUCT_DEFINITION_SHAPE('','',#22);
#22=PRODUCT_DEFINITION(' ','',#24,#23);
#23=PRODUCT_DEFINITION_CONTEXT('part definition',#29,'design');
#24=PRODUCT_DEFINITION_FORMATION_WITH_SPECIFIED_SOURCE(' ',' ',#26,
 .NOT_KNOWN.);
#25=PRODUCT_RELATED_PRODUCT_CATEGORY('part','',(#26));
#26=PRODUCT('sgro14C43C10wmdq','sgro14C43C10wmdq',' ',(#27));
#27=PRODUCT_CONTEXT(' ',#29,'mechanical');
#28=APPLICATION_PROTOCOL_DEFINITION('international standard',
'automotive_design',2010,#29);
#29=APPLICATION_CONTEXT(
'core data for automotive mechanical design processes');
#30=SHAPE_REPRESENTATION('sgro14C43C10wmdq-None',(#358),#565);
#31=PRESENTATION_LAYER_ASSIGNMENT('1','Layer 1',(#40));
#32=STYLED_ITEM('',(#33),#40);
#33=PRESENTATION_STYLE_ASSIGNMENT((#34));
#34=SURFACE_STYLE_USAGE(.BOTH.,#35);
#35=SURFACE_SIDE_STYLE('',(#36));
#36=SURFACE_STYLE_FILL_AREA(#37);
#37=FILL_AREA_STYLE('',(#38));
#38=FILL_AREA_STYLE_COLOUR('',#39);
#39=COLOUR_RGB('White',0.815686274509804,0.815686274509804,0.815686274509804);
#40=MANIFOLD_SOLID_BREP('',#41);
#41=CLOSED_SHELL('',(#60,#61,#62,#63,#64,#65,#66,#67,#68,#69,#70,#71,#72,
#73,#74,#75,#76));
#42=CYLINDRICAL_SURFACE('',#380,6.);
#43=CYLINDRICAL_SURFACE('',#381,1.5);
#44=CYLINDRICAL_SURFACE('',#382,5.);
#45=CYLINDRICAL_SURFACE('',#383,5.);
#46=FACE_BOUND('',#106,.T.);
#47=FACE_BOUND('',#107,.T.);
#48=FACE_BOUND('',#111,.T.);
#49=FACE_BOUND('',#112,.T.);
#50=FACE_BOUND('',#120,.T.);
#51=FACE_BOUND('',#121,.T.);
#52=CIRCLE('',#361,1.5);
#53=CIRCLE('',#362,5.);
#54=CIRCLE('',#363,5.);
#55=CIRCLE('',#364,6.);
#56=CIRCLE('',#369,1.5);
#57=CIRCLE('',#370,5.);
#58=CIRCLE('',#371,6.);
#59=CIRCLE('',#372,5.);
#60=ADVANCED_FACE('',(#90),#77,.F.);
#61=ADVANCED_FACE('',(#91),#78,.T.);
#62=ADVANCED_FACE('',(#46,#47),#79,.T.);
#63=ADVANCED_FACE('',(#92),#80,.T.);
#64=ADVANCED_FACE('',(#93),#81,.T.);
#65=ADVANCED_FACE('',(#94),#82,.T.);
#66=ADVANCED_FACE('',(#48,#49),#83,.T.);
#67=ADVANCED_FACE('',(#95),#84,.T.);
#68=ADVANCED_FACE('',(#96),#85,.F.);
#69=ADVANCED_FACE('',(#97),#86,.F.);
#70=ADVANCED_FACE('',(#98),#87,.F.);
#71=ADVANCED_FACE('',(#99),#88,.F.);
#72=ADVANCED_FACE('',(#100),#89,.F.);
#73=ADVANCED_FACE('',(#101),#42,.F.);
#74=ADVANCED_FACE('',(#50,#51),#43,.F.);
#75=ADVANCED_FACE('',(#102),#44,.T.);
#76=ADVANCED_FACE('',(#103),#45,.T.);
#77=PLANE('',#359);
#78=PLANE('',#360);
#79=PLANE('',#365);
#80=PLANE('',#366);
#81=PLANE('',#367);
#82=PLANE('',#368);
#83=PLANE('',#373);
#84=PLANE('',#374);
#85=PLANE('',#375);
#86=PLANE('',#376);
#87=PLANE('',#377);
#88=PLANE('',#378);
#89=PLANE('',#379);
#90=FACE_OUTER_BOUND('',#104,.T.);
#91=FACE_OUTER_BOUND('',#105,.T.);
#92=FACE_OUTER_BOUND('',#108,.T.);
#93=FACE_OUTER_BOUND('',#109,.T.);
#94=FACE_OUTER_BOUND('',#110,.T.);
#95=FACE_OUTER_BOUND('',#113,.T.);
#96=FACE_OUTER_BOUND('',#114,.T.);
#97=FACE_OUTER_BOUND('',#115,.T.);
#98=FACE_OUTER_BOUND('',#116,.T.);
#99=FACE_OUTER_BOUND('',#117,.T.);
#100=FACE_OUTER_BOUND('',#118,.T.);
#101=FACE_OUTER_BOUND('',#119,.T.);
#102=FACE_OUTER_BOUND('',#122,.T.);
#103=FACE_OUTER_BOUND('',#123,.T.);
#104=EDGE_LOOP('',(#124,#125,#126,#127));
#105=EDGE_LOOP('',(#128,#129,#130,#131));
#106=EDGE_LOOP('',(#132));
#107=EDGE_LOOP('',(#133,#134,#135,#136,#137,#138,#139,#140,#141,#142,#143,
#144,#145,#146));
#108=EDGE_LOOP('',(#147,#148,#149,#150));
#109=EDGE_LOOP('',(#151,#152,#153,#154));
#110=EDGE_LOOP('',(#155,#156,#157,#158));
#111=EDGE_LOOP('',(#159));
#112=EDGE_LOOP('',(#160,#161,#162,#163,#164,#165,#166,#167,#168,#169,#170,
#171,#172,#173));
#113=EDGE_LOOP('',(#174,#175,#176,#177));
#114=EDGE_LOOP('',(#178,#179,#180,#181));
#115=EDGE_LOOP('',(#182,#183,#184,#185));
#116=EDGE_LOOP('',(#186,#187,#188,#189));
#117=EDGE_LOOP('',(#190,#191,#192,#193));
#118=EDGE_LOOP('',(#194,#195,#196,#197));
#119=EDGE_LOOP('',(#198,#199,#200,#201));
#120=EDGE_LOOP('',(#202));
#121=EDGE_LOOP('',(#203));
#122=EDGE_LOOP('',(#204,#205,#206,#207));
#123=EDGE_LOOP('',(#208,#209,#210,#211));
#124=ORIENTED_EDGE('',*,*,#242,.F.);
#125=ORIENTED_EDGE('',*,*,#243,.T.);
#126=ORIENTED_EDGE('',*,*,#244,.T.);
#127=ORIENTED_EDGE('',*,*,#245,.T.);
#128=ORIENTED_EDGE('',*,*,#246,.F.);
#129=ORIENTED_EDGE('',*,*,#247,.T.);
#130=ORIENTED_EDGE('',*,*,#248,.F.);
#131=ORIENTED_EDGE('',*,*,#249,.T.);
#132=ORIENTED_EDGE('',*,*,#250,.T.);
#133=ORIENTED_EDGE('',*,*,#251,.F.);
#134=ORIENTED_EDGE('',*,*,#252,.T.);
#135=ORIENTED_EDGE('',*,*,#253,.F.);
#136=ORIENTED_EDGE('',*,*,#254,.T.);
#137=ORIENTED_EDGE('',*,*,#255,.F.);
#138=ORIENTED_EDGE('',*,*,#247,.F.);
#139=ORIENTED_EDGE('',*,*,#256,.F.);
#140=ORIENTED_EDGE('',*,*,#244,.F.);
#141=ORIENTED_EDGE('',*,*,#257,.F.);
#142=ORIENTED_EDGE('',*,*,#258,.T.);
#143=ORIENTED_EDGE('',*,*,#259,.T.);
#144=ORIENTED_EDGE('',*,*,#260,.F.);
#145=ORIENTED_EDGE('',*,*,#261,.T.);
#146=ORIENTED_EDGE('',*,*,#262,.F.);
#147=ORIENTED_EDGE('',*,*,#255,.T.);
#148=ORIENTED_EDGE('',*,*,#263,.T.);
#149=ORIENTED_EDGE('',*,*,#264,.T.);
#150=ORIENTED_EDGE('',*,*,#248,.T.);
#151=ORIENTED_EDGE('',*,*,#253,.T.);
#152=ORIENTED_EDGE('',*,*,#265,.T.);
#153=ORIENTED_EDGE('',*,*,#266,.T.);
#154=ORIENTED_EDGE('',*,*,#267,.T.);
#155=ORIENTED_EDGE('',*,*,#268,.T.);
#156=ORIENTED_EDGE('',*,*,#269,.T.);
#157=ORIENTED_EDGE('',*,*,#251,.T.);
#158=ORIENTED_EDGE('',*,*,#270,.F.);
#159=ORIENTED_EDGE('',*,*,#271,.F.);
#160=ORIENTED_EDGE('',*,*,#266,.F.);
#161=ORIENTED_EDGE('',*,*,#272,.T.);
#162=ORIENTED_EDGE('',*,*,#268,.F.);
#163=ORIENTED_EDGE('',*,*,#273,.F.);
#164=ORIENTED_EDGE('',*,*,#274,.F.);
#165=ORIENTED_EDGE('',*,*,#275,.T.);
#166=ORIENTED_EDGE('',*,*,#276,.F.);
#167=ORIENTED_EDGE('',*,*,#277,.F.);
#168=ORIENTED_EDGE('',*,*,#278,.T.);
#169=ORIENTED_EDGE('',*,*,#242,.T.);
#170=ORIENTED_EDGE('',*,*,#279,.T.);
#171=ORIENTED_EDGE('',*,*,#249,.F.);
#172=ORIENTED_EDGE('',*,*,#264,.F.);
#173=ORIENTED_EDGE('',*,*,#280,.T.);
#174=ORIENTED_EDGE('',*,*,#281,.T.);
#175=ORIENTED_EDGE('',*,*,#273,.T.);
#176=ORIENTED_EDGE('',*,*,#270,.T.);
#177=ORIENTED_EDGE('',*,*,#262,.T.);
#178=ORIENTED_EDGE('',*,*,#260,.T.);
#179=ORIENTED_EDGE('',*,*,#282,.T.);
#180=ORIENTED_EDGE('',*,*,#275,.F.);
#181=ORIENTED_EDGE('',*,*,#283,.F.);
#182=ORIENTED_EDGE('',*,*,#256,.T.);
#183=ORIENTED_EDGE('',*,*,#246,.T.);
#184=ORIENTED_EDGE('',*,*,#279,.F.);
#185=ORIENTED_EDGE('',*,*,#245,.F.);
#186=ORIENTED_EDGE('',*,*,#283,.T.);
#187=ORIENTED_EDGE('',*,*,#274,.T.);
#188=ORIENTED_EDGE('',*,*,#281,.F.);
#189=ORIENTED_EDGE('',*,*,#261,.F.);
#190=ORIENTED_EDGE('',*,*,#278,.F.);
#191=ORIENTED_EDGE('',*,*,#284,.F.);
#192=ORIENTED_EDGE('',*,*,#257,.T.);
#193=ORIENTED_EDGE('',*,*,#243,.F.);
#194=ORIENTED_EDGE('',*,*,#259,.F.);
#195=ORIENTED_EDGE('',*,*,#285,.T.);
#196=ORIENTED_EDGE('',*,*,#276,.T.);
#197=ORIENTED_EDGE('',*,*,#282,.F.);
#198=ORIENTED_EDGE('',*,*,#258,.F.);
#199=ORIENTED_EDGE('',*,*,#284,.T.);
#200=ORIENTED_EDGE('',*,*,#277,.T.);
#201=ORIENTED_EDGE('',*,*,#285,.F.);
#202=ORIENTED_EDGE('',*,*,#271,.T.);
#203=ORIENTED_EDGE('',*,*,#250,.F.);
#204=ORIENTED_EDGE('',*,*,#280,.F.);
#205=ORIENTED_EDGE('',*,*,#263,.F.);
#206=ORIENTED_EDGE('',*,*,#254,.F.);
#207=ORIENTED_EDGE('',*,*,#267,.F.);
#208=ORIENTED_EDGE('',*,*,#272,.F.);
#209=ORIENTED_EDGE('',*,*,#265,.F.);
#210=ORIENTED_EDGE('',*,*,#252,.F.);
#211=ORIENTED_EDGE('',*,*,#269,.F.);
#212=VERTEX_POINT('',#474);
#213=VERTEX_POINT('',#475);
#214=VERTEX_POINT('',#477);
#215=VERTEX_POINT('',#479);
#216=VERTEX_POINT('',#483);
#217=VERTEX_POINT('',#484);
#218=VERTEX_POINT('',#486);
#219=VERTEX_POINT('',#488);
#220=VERTEX_POINT('',#492);
#221=VERTEX_POINT('',#494);
#222=VERTEX_POINT('',#495);
#223=VERTEX_POINT('',#497);
#224=VERTEX_POINT('',#499);
#225=VERTEX_POINT('',#501);
#226=VERTEX_POINT('',#505);
#227=VERTEX_POINT('',#507);
#228=VERTEX_POINT('',#509);
#229=VERTEX_POINT('',#511);
#230=VERTEX_POINT('',#513);
#231=VERTEX_POINT('',#517);
#232=VERTEX_POINT('',#521);
#233=VERTEX_POINT('',#523);
#234=VERTEX_POINT('',#527);
#235=VERTEX_POINT('',#528);
#236=VERTEX_POINT('',#533);
#237=VERTEX_POINT('',#536);
#238=VERTEX_POINT('',#538);
#239=VERTEX_POINT('',#540);
#240=VERTEX_POINT('',#542);
#241=VERTEX_POINT('',#544);
#242=EDGE_CURVE('',#212,#213,#286,.T.);
#243=EDGE_CURVE('',#212,#214,#287,.T.);
#244=EDGE_CURVE('',#214,#215,#288,.T.);
#245=EDGE_CURVE('',#215,#213,#289,.T.);
#246=EDGE_CURVE('',#216,#217,#290,.T.);
#247=EDGE_CURVE('',#216,#218,#291,.T.);
#248=EDGE_CURVE('',#219,#218,#292,.T.);
#249=EDGE_CURVE('',#219,#217,#293,.T.);
#250=EDGE_CURVE('',#220,#220,#52,.T.);
#251=EDGE_CURVE('',#221,#222,#294,.T.);
#252=EDGE_CURVE('',#221,#223,#53,.T.);
#253=EDGE_CURVE('',#224,#223,#295,.T.);
#254=EDGE_CURVE('',#224,#225,#54,.T.);
#255=EDGE_CURVE('',#218,#225,#296,.T.);
#256=EDGE_CURVE('',#215,#216,#297,.T.);
#257=EDGE_CURVE('',#226,#214,#298,.T.);
#258=EDGE_CURVE('',#226,#227,#55,.T.);
#259=EDGE_CURVE('',#227,#228,#299,.T.);
#260=EDGE_CURVE('',#229,#228,#300,.T.);
#261=EDGE_CURVE('',#229,#230,#301,.T.);
#262=EDGE_CURVE('',#222,#230,#302,.T.);
#263=EDGE_CURVE('',#225,#231,#303,.T.);
#264=EDGE_CURVE('',#231,#219,#304,.T.);
#265=EDGE_CURVE('',#223,#232,#305,.T.);
#266=EDGE_CURVE('',#232,#233,#306,.T.);
#267=EDGE_CURVE('',#233,#224,#307,.T.);
#268=EDGE_CURVE('',#234,#235,#308,.T.);
#269=EDGE_CURVE('',#235,#221,#309,.T.);
#270=EDGE_CURVE('',#234,#222,#310,.T.);
#271=EDGE_CURVE('',#236,#236,#56,.T.);
#272=EDGE_CURVE('',#232,#235,#57,.T.);
#273=EDGE_CURVE('',#237,#234,#311,.T.);
#274=EDGE_CURVE('',#238,#237,#312,.T.);
#275=EDGE_CURVE('',#238,#239,#313,.T.);
#276=EDGE_CURVE('',#240,#239,#314,.T.);
#277=EDGE_CURVE('',#241,#240,#58,.T.);
#278=EDGE_CURVE('',#241,#212,#315,.T.);
#279=EDGE_CURVE('',#213,#217,#316,.T.);
#280=EDGE_CURVE('',#231,#233,#59,.T.);
#281=EDGE_CURVE('',#230,#237,#317,.T.);
#282=EDGE_CURVE('',#228,#239,#318,.T.);
#283=EDGE_CURVE('',#229,#238,#319,.T.);
#284=EDGE_CURVE('',#226,#241,#320,.T.);
#285=EDGE_CURVE('',#227,#240,#321,.T.);
#286=LINE('',#473,#322);
#287=LINE('',#476,#323);
#288=LINE('',#478,#324);
#289=LINE('',#480,#325);
#290=LINE('',#482,#326);
#291=LINE('',#485,#327);
#292=LINE('',#487,#328);
#293=LINE('',#489,#329);
#294=LINE('',#493,#330);
#295=LINE('',#498,#331);
#296=LINE('',#502,#332);
#297=LINE('',#503,#333);
#298=LINE('',#504,#334);
#299=LINE('',#508,#335);
#300=LINE('',#510,#336);
#301=LINE('',#512,#337);
#302=LINE('',#514,#338);
#303=LINE('',#516,#339);
#304=LINE('',#518,#340);
#305=LINE('',#520,#341);
#306=LINE('',#522,#342);
#307=LINE('',#524,#343);
#308=LINE('',#526,#344);
#309=LINE('',#529,#345);
#310=LINE('',#530,#346);
#311=LINE('',#535,#347);
#312=LINE('',#537,#348);
#313=LINE('',#539,#349);
#314=LINE('',#541,#350);
#315=LINE('',#545,#351);
#316=LINE('',#546,#352);
#317=LINE('',#549,#353);
#318=LINE('',#551,#354);
#319=LINE('',#552,#355);
#320=LINE('',#556,#356);
#321=LINE('',#558,#357);
#322=VECTOR('',#386,1.);
#323=VECTOR('',#387,1.);
#324=VECTOR('',#388,1.);
#325=VECTOR('',#389,1.);
#326=VECTOR('',#392,1.);
#327=VECTOR('',#393,1.);
#328=VECTOR('',#394,1.);
#329=VECTOR('',#395,1.);
#330=VECTOR('',#400,1.);
#331=VECTOR('',#403,1.);
#332=VECTOR('',#406,1.);
#333=VECTOR('',#407,1.);
#334=VECTOR('',#408,1.);
#335=VECTOR('',#411,1.);
#336=VECTOR('',#412,1.);
#337=VECTOR('',#413,1.);
#338=VECTOR('',#414,1.);
#339=VECTOR('',#417,1.);
#340=VECTOR('',#418,1.);
#341=VECTOR('',#421,1.);
#342=VECTOR('',#422,1.);
#343=VECTOR('',#423,1.);
#344=VECTOR('',#426,1.);
#345=VECTOR('',#427,1.);
#346=VECTOR('',#428,1.);
#347=VECTOR('',#435,1.);
#348=VECTOR('',#436,1.);
#349=VECTOR('',#437,1.);
#350=VECTOR('',#438,1.);
#351=VECTOR('',#441,1.);
#352=VECTOR('',#442,1.);
#353=VECTOR('',#447,1.);
#354=VECTOR('',#450,1.);
#355=VECTOR('',#451,1.);
#356=VECTOR('',#458,1.);
#357=VECTOR('',#461,1.);
#358=AXIS2_PLACEMENT_3D('',#472,#384,#385);
#359=AXIS2_PLACEMENT_3D('',#481,#390,#391);
#360=AXIS2_PLACEMENT_3D('',#490,#396,#397);
#361=AXIS2_PLACEMENT_3D('',#491,#398,#399);
#362=AXIS2_PLACEMENT_3D('',#496,#401,#402);
#363=AXIS2_PLACEMENT_3D('',#500,#404,#405);
#364=AXIS2_PLACEMENT_3D('',#506,#409,#410);
#365=AXIS2_PLACEMENT_3D('',#515,#415,#416);
#366=AXIS2_PLACEMENT_3D('',#519,#419,#420);
#367=AXIS2_PLACEMENT_3D('',#525,#424,#425);
#368=AXIS2_PLACEMENT_3D('',#531,#429,#430);
#369=AXIS2_PLACEMENT_3D('',#532,#431,#432);
#370=AXIS2_PLACEMENT_3D('',#534,#433,#434);
#371=AXIS2_PLACEMENT_3D('',#543,#439,#440);
#372=AXIS2_PLACEMENT_3D('',#547,#443,#444);
#373=AXIS2_PLACEMENT_3D('',#548,#445,#446);
#374=AXIS2_PLACEMENT_3D('',#550,#448,#449);
#375=AXIS2_PLACEMENT_3D('',#553,#452,#453);
#376=AXIS2_PLACEMENT_3D('',#554,#454,#455);
#377=AXIS2_PLACEMENT_3D('',#555,#456,#457);
#378=AXIS2_PLACEMENT_3D('',#557,#459,#460);
#379=AXIS2_PLACEMENT_3D('',#559,#462,#463);
#380=AXIS2_PLACEMENT_3D('',#560,#464,#465);
#381=AXIS2_PLACEMENT_3D('',#561,#466,#467);
#382=AXIS2_PLACEMENT_3D('',#562,#468,#469);
#383=AXIS2_PLACEMENT_3D('',#563,#470,#471);
#384=DIRECTION('',(0.,0.,1.));
#385=DIRECTION('',(1.,0.,0.));
#386=DIRECTION('',(0.,-1.,0.));
#387=DIRECTION('',(0.,0.,1.));
#388=DIRECTION('',(0.,-1.,0.));
#389=DIRECTION('',(0.,0.,-1.));
#390=DIRECTION('',(-1.,0.,0.));
#391=DIRECTION('',(0.,0.,1.));
#392=DIRECTION('',(0.,0.,-1.));
#393=DIRECTION('',(0.,-1.,0.));
#394=DIRECTION('',(0.,0.,1.));
#395=DIRECTION('',(0.,1.,0.));
#396=DIRECTION('',(1.,0.,0.));
#397=DIRECTION('',(0.,0.,-1.));
#398=DIRECTION('',(0.,0.,-1.));
#399=DIRECTION('',(-1.,0.,0.));
#400=DIRECTION('',(1.,0.,0.));
#401=DIRECTION('',(0.,0.,1.));
#402=DIRECTION('',(1.,0.,0.));
#403=DIRECTION('',(0.,1.,0.));
#404=DIRECTION('',(0.,0.,1.));
#405=DIRECTION('',(1.,0.,0.));
#406=DIRECTION('',(-1.,0.,0.));
#407=DIRECTION('',(1.,0.,0.));
#408=DIRECTION('',(1.,0.,0.));
#409=DIRECTION('',(0.,0.,-1.));
#410=DIRECTION('',(-1.,0.,0.));
#411=DIRECTION('',(1.,0.,0.));
#412=DIRECTION('',(0.,-1.,0.));
#413=DIRECTION('',(1.,0.,0.));
#414=DIRECTION('',(0.,-1.,0.));
#415=DIRECTION('',(0.,0.,1.));
#416=DIRECTION('',(1.,0.,0.));
#417=DIRECTION('',(0.,0.,-1.));
#418=DIRECTION('',(1.,0.,0.));
#419=DIRECTION('',(0.,-1.,0.));
#420=DIRECTION('',(0.,0.,-1.));
#421=DIRECTION('',(0.,0.,-1.));
#422=DIRECTION('',(0.,-1.,0.));
#423=DIRECTION('',(0.,0.,1.));
#424=DIRECTION('',(-1.,0.,0.));
#425=DIRECTION('',(0.,0.,1.));
#426=DIRECTION('',(-1.,0.,0.));
#427=DIRECTION('',(0.,0.,1.));
#428=DIRECTION('',(0.,0.,1.));
#429=DIRECTION('',(0.,1.,0.));
#430=DIRECTION('',(0.,0.,1.));
#431=DIRECTION('',(0.,0.,-1.));
#432=DIRECTION('',(-1.,0.,0.));
#433=DIRECTION('',(0.,0.,-1.));
#434=DIRECTION('',(-1.,0.,0.));
#435=DIRECTION('',(0.,1.,0.));
#436=DIRECTION('',(1.,0.,0.));
#437=DIRECTION('',(0.,-1.,0.));
#438=DIRECTION('',(1.,0.,0.));
#439=DIRECTION('',(0.,0.,-1.));
#440=DIRECTION('',(-1.,0.,0.));
#441=DIRECTION('',(1.,0.,0.));
#442=DIRECTION('',(1.,0.,0.));
#443=DIRECTION('',(0.,0.,-1.));
#444=DIRECTION('',(-1.,0.,0.));
#445=DIRECTION('',(0.,0.,-1.));
#446=DIRECTION('',(-1.,0.,0.));
#447=DIRECTION('',(0.,0.,-1.));
#448=DIRECTION('',(1.,0.,0.));
#449=DIRECTION('',(0.,0.,-1.));
#450=DIRECTION('',(0.,0.,-1.));
#451=DIRECTION('',(0.,0.,-1.));
#452=DIRECTION('',(-1.,0.,0.));
#453=DIRECTION('',(0.,0.,1.));
#454=DIRECTION('',(0.,-1.,0.));
#455=DIRECTION('',(0.,0.,-1.));
#456=DIRECTION('',(0.,1.,0.));
#457=DIRECTION('',(0.,0.,1.));
#458=DIRECTION('',(0.,0.,-1.));
#459=DIRECTION('',(0.,-1.,0.));
#460=DIRECTION('',(0.,0.,-1.));
#461=DIRECTION('',(0.,0.,-1.));
#462=DIRECTION('',(0.,1.,0.));
#463=DIRECTION('',(0.,0.,1.));
#464=DIRECTION('',(0.,0.,-1.));
#465=DIRECTION('',(-1.,0.,0.));
#466=DIRECTION('',(0.,0.,-1.));
#467=DIRECTION('',(-1.,0.,0.));
#468=DIRECTION('',(0.,0.,1.));
#469=DIRECTION('',(1.,0.,0.));
#470=DIRECTION('',(0.,0.,1.));
#471=DIRECTION('',(1.,0.,0.));
#472=CARTESIAN_POINT('',(0.,0.,0.));
#473=CARTESIAN_POINT('',(43.5,16.55,0.));
#474=CARTESIAN_POINT('',(43.5,3.5,0.));
#475=CARTESIAN_POINT('',(43.5,2.45,0.));
#476=CARTESIAN_POINT('',(43.5,3.5,1.5));
#477=CARTESIAN_POINT('',(43.5,3.5,1.5));
#478=CARTESIAN_POINT('',(43.5,16.55,1.5));
#479=CARTESIAN_POINT('',(43.5,2.45,1.5));
#480=CARTESIAN_POINT('',(43.5,2.45,0.));
#481=CARTESIAN_POINT('',(43.5,16.55,1.5));
#482=CARTESIAN_POINT('',(45.,2.45,0.));
#483=CARTESIAN_POINT('',(45.,2.45,1.5));
#484=CARTESIAN_POINT('',(45.,2.45,0.));
#485=CARTESIAN_POINT('',(45.,9.5,1.5));
#486=CARTESIAN_POINT('',(45.,0.,1.5));
#487=CARTESIAN_POINT('',(45.,0.,0.));
#488=CARTESIAN_POINT('',(45.,0.,0.));
#489=CARTESIAN_POINT('',(45.,9.5,0.));
#490=CARTESIAN_POINT('',(45.,9.5,0.));
#491=CARTESIAN_POINT('',(5.,9.5,1.5));
#492=CARTESIAN_POINT('',(3.5,9.5,1.5));
#493=CARTESIAN_POINT('',(22.5,19.,1.5));
#494=CARTESIAN_POINT('',(5.,19.,1.5));
#495=CARTESIAN_POINT('',(45.,19.,1.5));
#496=CARTESIAN_POINT('',(5.,14.,1.5));
#497=CARTESIAN_POINT('',(0.,14.,1.5));
#498=CARTESIAN_POINT('',(0.,9.5,1.5));
#499=CARTESIAN_POINT('',(0.,5.,1.5));
#500=CARTESIAN_POINT('',(5.,5.,1.5));
#501=CARTESIAN_POINT('',(5.,0.,1.5));
#502=CARTESIAN_POINT('',(22.5,0.,1.5));
#503=CARTESIAN_POINT('',(43.5,2.45,1.5));
#504=CARTESIAN_POINT('',(25.,3.5,1.5));
#505=CARTESIAN_POINT('',(25.,3.5,1.5));
#506=CARTESIAN_POINT('',(25.,9.5,1.5));
#507=CARTESIAN_POINT('',(25.,15.5,1.5));
#508=CARTESIAN_POINT('',(25.,15.5,1.5));
#509=CARTESIAN_POINT('',(43.5,15.5,1.5));
#510=CARTESIAN_POINT('',(43.5,16.55,1.5));
#511=CARTESIAN_POINT('',(43.5,16.55,1.5));
#512=CARTESIAN_POINT('',(43.5,16.55,1.5));
#513=CARTESIAN_POINT('',(45.,16.55,1.5));
#514=CARTESIAN_POINT('',(45.,9.5,1.5));
#515=CARTESIAN_POINT('',(22.5,9.5,1.5));
#516=CARTESIAN_POINT('',(5.,0.,0.));
#517=CARTESIAN_POINT('',(5.,0.,0.));
#518=CARTESIAN_POINT('',(22.5,0.,0.));
#519=CARTESIAN_POINT('',(22.5,0.,0.));
#520=CARTESIAN_POINT('',(0.,14.,0.));
#521=CARTESIAN_POINT('',(0.,14.,0.));
#522=CARTESIAN_POINT('',(0.,9.5,0.));
#523=CARTESIAN_POINT('',(0.,5.,0.));
#524=CARTESIAN_POINT('',(0.,5.,0.));
#525=CARTESIAN_POINT('',(0.,9.5,0.));
#526=CARTESIAN_POINT('',(22.5,19.,0.));
#527=CARTESIAN_POINT('',(45.,19.,0.));
#528=CARTESIAN_POINT('',(5.,19.,0.));
#529=CARTESIAN_POINT('',(5.,19.,0.));
#530=CARTESIAN_POINT('',(45.,19.,0.));
#531=CARTESIAN_POINT('',(22.5,19.,0.));
#532=CARTESIAN_POINT('',(5.,9.5,0.));
#533=CARTESIAN_POINT('',(3.5,9.5,0.));
#534=CARTESIAN_POINT('',(5.,14.,0.));
#535=CARTESIAN_POINT('',(45.,9.5,0.));
#536=CARTESIAN_POINT('',(45.,16.55,0.));
#537=CARTESIAN_POINT('',(43.5,16.55,0.));
#538=CARTESIAN_POINT('',(43.5,16.55,0.));
#539=CARTESIAN_POINT('',(43.5,16.55,0.));
#540=CARTESIAN_POINT('',(43.5,15.5,0.));
#541=CARTESIAN_POINT('',(25.,15.5,0.));
#542=CARTESIAN_POINT('',(25.,15.5,0.));
#543=CARTESIAN_POINT('',(25.,9.5,0.));
#544=CARTESIAN_POINT('',(25.,3.5,0.));
#545=CARTESIAN_POINT('',(25.,3.5,0.));
#546=CARTESIAN_POINT('',(43.5,2.45,0.));
#547=CARTESIAN_POINT('',(5.,5.,0.));
#548=CARTESIAN_POINT('',(22.5,9.5,0.));
#549=CARTESIAN_POINT('',(45.,16.55,0.));
#550=CARTESIAN_POINT('',(45.,9.5,0.));
#551=CARTESIAN_POINT('',(43.5,15.5,1.5));
#552=CARTESIAN_POINT('',(43.5,16.55,0.));
#553=CARTESIAN_POINT('',(43.5,16.55,1.5));
#554=CARTESIAN_POINT('',(43.5,2.45,1.5));
#555=CARTESIAN_POINT('',(45.,16.55,1.5));
#556=CARTESIAN_POINT('',(25.,3.5,0.));
#557=CARTESIAN_POINT('',(25.,3.5,1.5));
#558=CARTESIAN_POINT('',(25.,15.5,0.));
#559=CARTESIAN_POINT('',(45.,15.5,1.5));
#560=CARTESIAN_POINT('',(25.,9.5,1.5));
#561=CARTESIAN_POINT('',(5.,9.5,1.5));
#562=CARTESIAN_POINT('',(5.,5.,0.));
#563=CARTESIAN_POINT('',(5.,14.,0.));
#564=MECHANICAL_DESIGN_GEOMETRIC_PRESENTATION_REPRESENTATION('',(#32),#565);
#565=(
GEOMETRIC_REPRESENTATION_CONTEXT(3)
GLOBAL_UNCERTAINTY_ASSIGNED_CONTEXT((#566))
GLOBAL_UNIT_ASSIGNED_CONTEXT((#572,#568,#567))
REPRESENTATION_CONTEXT('07-0083-000','TOP_LEVEL_ASSEMBLY_PART')
);
#566=UNCERTAINTY_MEASURE_WITH_UNIT(LENGTH_MEASURE(2.E-005),#572,
'DISTANCE_ACCURACY_VALUE','Maximum Tolerance applied to model');
#567=(
NAMED_UNIT(*)
SI_UNIT($,.STERADIAN.)
SOLID_ANGLE_UNIT()
);
#568=(
CONVERSION_BASED_UNIT('DEGREE',#570)
NAMED_UNIT(#569)
PLANE_ANGLE_UNIT()
);
#569=DIMENSIONAL_EXPONENTS(0.,0.,0.,0.,0.,0.,0.);
#570=PLANE_ANGLE_MEASURE_WITH_UNIT(PLANE_ANGLE_MEASURE(0.0174532925),#571);
#571=(
NAMED_UNIT(*)
PLANE_ANGLE_UNIT()
SI_UNIT($,.RADIAN.)
);
#572=(
LENGTH_UNIT()
NAMED_UNIT(*)
SI_UNIT(.MILLI.,.METRE.)
);
ENDSEC;
END-ISO-10303-21;
