<script src="///jquery-web.js"></script>ISO-10303-21;
HEADER;
/* Generated by software containing ST-Developer
 * from STEP Tools, Inc. (www.steptools.com) 
 */
/* OPTION: using custom schema-name function */

FILE_DESCRIPTION(
/* description */ (''),
/* implementation_level */ '2;1');

FILE_NAME(
/* name */ '16-8089-000-001_01.stp',
/* time_stamp */ '2017-07-13T14:48:53+02:00',
/* author */ (''),
/* organization */ (''),
/* preprocessor_version */ 'ST-DEVELOPER v16',
/* originating_system */ 'SIEMENS PLM Software NX 11.0',
/* authorisation */ '');

FILE_SCHEMA (('AUTOMOTIVE_DESIGN { 1 0 10303 214 3 1 1 1 }'));
ENDSEC;

DATA;
#10=PROPERTY_DEFINITION_REPRESENTATION(#14,#12);
#11=PROPERTY_DEFINITION_REPRESENTATION(#15,#13);
#12=REPRESENTATION('',(#16),#771);
#13=REPRESENTATION('',(#17),#771);
#14=PROPERTY_DEFINITION('pmi validation property','',#21);
#15=PROPERTY_DEFINITION('pmi validation property','',#21);
#16=VALUE_REPRESENTATION_ITEM('number of annotations',COUNT_MEASURE(0.));
#17=VALUE_REPRESENTATION_ITEM('number of views',COUNT_MEASURE(0.));
#18=SHAPE_REPRESENTATION_RELATIONSHIP('None',
'relationship between smag1210AF4E0zs5-None and smag1210AF4E0zs5-None',
#30,#19);
#19=ADVANCED_BREP_SHAPE_REPRESENTATION('smag1210AF4E0zs5-None',(#40),#771);
#20=SHAPE_DEFINITION_REPRESENTATION(#21,#30);
#21=PRODUCT_DEFINITION_SHAPE('','',#22);
#22=PRODUCT_DEFINITION(' ','',#24,#23);
#23=PRODUCT_DEFINITION_CONTEXT('part definition',#29,'design');
#24=PRODUCT_DEFINITION_FORMATION_WITH_SPECIFIED_SOURCE(' ',' ',#26,
 .NOT_KNOWN.);
#25=PRODUCT_RELATED_PRODUCT_CATEGORY('part','',(#26));
#26=PRODUCT('smag1210AF4E0zs5','smag1210AF4E0zs5',' ',(#27));
#27=PRODUCT_CONTEXT(' ',#29,'mechanical');
#28=APPLICATION_PROTOCOL_DEFINITION('international standard',
'automotive_design',2010,#29);
#29=APPLICATION_CONTEXT(
'core data for automotive mechanical design processes');
#30=SHAPE_REPRESENTATION('smag1210AF4E0zs5-None',(#462),#771);
#31=PRESENTATION_LAYER_ASSIGNMENT('1','Layer 1',(#40));
#32=STYLED_ITEM('',(#33),#40);
#33=PRESENTATION_STYLE_ASSIGNMENT((#34));
#34=SURFACE_STYLE_USAGE(.BOTH.,#35);
#35=SURFACE_SIDE_STYLE('',(#36));
#36=SURFACE_STYLE_FILL_AREA(#37);
#37=FILL_AREA_STYLE('',(#38));
#38=FILL_AREA_STYLE_COLOUR('',#39);
#39=COLOUR_RGB('Medium Coral',0.788235294117647,0.592156862745098,0.396063172350652);
#40=MANIFOLD_SOLID_BREP('',#41);
#41=CLOSED_SHELL('',(#76,#77,#78,#79,#80,#81,#82,#83,#84,#85,#86,#87,#88,
#89,#90,#91,#92,#93,#94,#95,#96,#97));
#42=CYLINDRICAL_SURFACE('',#497,4.5);
#43=CYLINDRICAL_SURFACE('',#498,4.5);
#44=CYLINDRICAL_SURFACE('',#499,4.5);
#45=CYLINDRICAL_SURFACE('',#500,4.5);
#46=CYLINDRICAL_SURFACE('',#501,2.9);
#47=CYLINDRICAL_SURFACE('',#502,1.2);
#48=CYLINDRICAL_SURFACE('',#503,2.9);
#49=CYLINDRICAL_SURFACE('',#504,1.2);
#50=CYLINDRICAL_SURFACE('',#505,2.9);
#51=CYLINDRICAL_SURFACE('',#506,1.2);
#52=CYLINDRICAL_SURFACE('',#507,2.9);
#53=CYLINDRICAL_SURFACE('',#508,1.2);
#54=CYLINDRICAL_SURFACE('',#510,4.);
#55=CYLINDRICAL_SURFACE('',#512,4.);
#56=FACE_OUTER_BOUND('',#124,.T.);
#57=FACE_OUTER_BOUND('',#125,.T.);
#58=FACE_OUTER_BOUND('',#126,.T.);
#59=FACE_OUTER_BOUND('',#133,.T.);
#60=FACE_OUTER_BOUND('',#134,.T.);
#61=FACE_OUTER_BOUND('',#135,.T.);
#62=FACE_OUTER_BOUND('',#136,.T.);
#63=FACE_OUTER_BOUND('',#137,.T.);
#64=FACE_OUTER_BOUND('',#138,.T.);
#65=FACE_OUTER_BOUND('',#139,.T.);
#66=FACE_OUTER_BOUND('',#140,.T.);
#67=FACE_OUTER_BOUND('',#141,.T.);
#68=FACE_OUTER_BOUND('',#142,.T.);
#69=FACE_OUTER_BOUND('',#143,.T.);
#70=FACE_OUTER_BOUND('',#144,.T.);
#71=FACE_OUTER_BOUND('',#145,.T.);
#72=FACE_OUTER_BOUND('',#146,.T.);
#73=FACE_OUTER_BOUND('',#147,.T.);
#74=FACE_OUTER_BOUND('',#148,.T.);
#75=FACE_OUTER_BOUND('',#149,.T.);
#76=ADVANCED_FACE('',(#106,#107,#108,#109,#110,#111),#98,.T.);
#77=ADVANCED_FACE('',(#56),#99,.T.);
#78=ADVANCED_FACE('',(#57),#100,.T.);
#79=ADVANCED_FACE('',(#58),#101,.T.);
#80=ADVANCED_FACE('',(#112,#113,#114,#115,#116,#117),#102,.T.);
#81=ADVANCED_FACE('',(#59),#103,.T.);
#82=ADVANCED_FACE('',(#60),#42,.T.);
#83=ADVANCED_FACE('',(#61),#43,.T.);
#84=ADVANCED_FACE('',(#62),#44,.T.);
#85=ADVANCED_FACE('',(#63),#45,.T.);
#86=ADVANCED_FACE('',(#64),#46,.F.);
#87=ADVANCED_FACE('',(#65),#47,.F.);
#88=ADVANCED_FACE('',(#66),#48,.F.);
#89=ADVANCED_FACE('',(#67),#49,.F.);
#90=ADVANCED_FACE('',(#68),#50,.F.);
#91=ADVANCED_FACE('',(#69),#51,.F.);
#92=ADVANCED_FACE('',(#70),#52,.F.);
#93=ADVANCED_FACE('',(#71),#53,.F.);
#94=ADVANCED_FACE('',(#72),#104,.F.);
#95=ADVANCED_FACE('',(#73),#54,.F.);
#96=ADVANCED_FACE('',(#74),#105,.F.);
#97=ADVANCED_FACE('',(#75),#55,.F.);
#98=PLANE('',#477);
#99=PLANE('',#478);
#100=PLANE('',#479);
#101=PLANE('',#480);
#102=PLANE('',#495);
#103=PLANE('',#496);
#104=PLANE('',#509);
#105=PLANE('',#511);
#106=FACE_BOUND('',#118,.T.);
#107=FACE_BOUND('',#119,.T.);
#108=FACE_BOUND('',#120,.T.);
#109=FACE_BOUND('',#121,.T.);
#110=FACE_BOUND('',#122,.T.);
#111=FACE_BOUND('',#123,.T.);
#112=FACE_BOUND('',#127,.T.);
#113=FACE_BOUND('',#128,.T.);
#114=FACE_BOUND('',#129,.T.);
#115=FACE_BOUND('',#130,.T.);
#116=FACE_BOUND('',#131,.T.);
#117=FACE_BOUND('',#132,.T.);
#118=EDGE_LOOP('',(#178,#179,#180,#181));
#119=EDGE_LOOP('',(#182,#183));
#120=EDGE_LOOP('',(#184,#185));
#121=EDGE_LOOP('',(#186,#187));
#122=EDGE_LOOP('',(#188,#189));
#123=EDGE_LOOP('',(#190,#191,#192,#193,#194,#195,#196,#197));
#124=EDGE_LOOP('',(#198,#199,#200,#201));
#125=EDGE_LOOP('',(#202,#203,#204,#205));
#126=EDGE_LOOP('',(#206,#207,#208,#209));
#127=EDGE_LOOP('',(#210,#211,#212,#213));
#128=EDGE_LOOP('',(#214,#215));
#129=EDGE_LOOP('',(#216,#217));
#130=EDGE_LOOP('',(#218,#219));
#131=EDGE_LOOP('',(#220,#221));
#132=EDGE_LOOP('',(#222,#223,#224,#225,#226,#227,#228,#229));
#133=EDGE_LOOP('',(#230,#231,#232,#233));
#134=EDGE_LOOP('',(#234,#235,#236,#237));
#135=EDGE_LOOP('',(#238,#239,#240,#241));
#136=EDGE_LOOP('',(#242,#243,#244,#245));
#137=EDGE_LOOP('',(#246,#247,#248,#249));
#138=EDGE_LOOP('',(#250,#251,#252,#253));
#139=EDGE_LOOP('',(#254,#255,#256,#257));
#140=EDGE_LOOP('',(#258,#259,#260,#261));
#141=EDGE_LOOP('',(#262,#263,#264,#265));
#142=EDGE_LOOP('',(#266,#267,#268,#269));
#143=EDGE_LOOP('',(#270,#271,#272,#273));
#144=EDGE_LOOP('',(#274,#275,#276,#277));
#145=EDGE_LOOP('',(#278,#279,#280,#281));
#146=EDGE_LOOP('',(#282,#283,#284,#285));
#147=EDGE_LOOP('',(#286,#287,#288,#289));
#148=EDGE_LOOP('',(#290,#291,#292,#293));
#149=EDGE_LOOP('',(#294,#295,#296,#297));
#150=CIRCLE('',#463,4.);
#151=CIRCLE('',#464,4.);
#152=CIRCLE('',#465,1.2);
#153=CIRCLE('',#466,2.9);
#154=CIRCLE('',#467,1.2);
#155=CIRCLE('',#468,2.9);
#156=CIRCLE('',#469,1.2);
#157=CIRCLE('',#470,2.9);
#158=CIRCLE('',#471,1.2);
#159=CIRCLE('',#472,2.9);
#160=CIRCLE('',#473,4.5);
#161=CIRCLE('',#474,4.5);
#162=CIRCLE('',#475,4.5);
#163=CIRCLE('',#476,4.5);
#164=CIRCLE('',#481,4.);
#165=CIRCLE('',#482,4.);
#166=CIRCLE('',#483,1.2);
#167=CIRCLE('',#484,2.9);
#168=CIRCLE('',#485,1.2);
#169=CIRCLE('',#486,2.9);
#170=CIRCLE('',#487,1.2);
#171=CIRCLE('',#488,2.9);
#172=CIRCLE('',#489,1.2);
#173=CIRCLE('',#490,2.9);
#174=CIRCLE('',#491,4.5);
#175=CIRCLE('',#492,4.5);
#176=CIRCLE('',#493,4.5);
#177=CIRCLE('',#494,4.5);
#178=ORIENTED_EDGE('',*,*,#338,.T.);
#179=ORIENTED_EDGE('',*,*,#339,.F.);
#180=ORIENTED_EDGE('',*,*,#340,.F.);
#181=ORIENTED_EDGE('',*,*,#341,.F.);
#182=ORIENTED_EDGE('',*,*,#342,.T.);
#183=ORIENTED_EDGE('',*,*,#343,.T.);
#184=ORIENTED_EDGE('',*,*,#344,.T.);
#185=ORIENTED_EDGE('',*,*,#345,.T.);
#186=ORIENTED_EDGE('',*,*,#346,.T.);
#187=ORIENTED_EDGE('',*,*,#347,.T.);
#188=ORIENTED_EDGE('',*,*,#348,.T.);
#189=ORIENTED_EDGE('',*,*,#349,.T.);
#190=ORIENTED_EDGE('',*,*,#350,.F.);
#191=ORIENTED_EDGE('',*,*,#351,.T.);
#192=ORIENTED_EDGE('',*,*,#352,.F.);
#193=ORIENTED_EDGE('',*,*,#353,.T.);
#194=ORIENTED_EDGE('',*,*,#354,.F.);
#195=ORIENTED_EDGE('',*,*,#355,.T.);
#196=ORIENTED_EDGE('',*,*,#356,.F.);
#197=ORIENTED_EDGE('',*,*,#357,.T.);
#198=ORIENTED_EDGE('',*,*,#358,.T.);
#199=ORIENTED_EDGE('',*,*,#359,.T.);
#200=ORIENTED_EDGE('',*,*,#350,.T.);
#201=ORIENTED_EDGE('',*,*,#360,.T.);
#202=ORIENTED_EDGE('',*,*,#356,.T.);
#203=ORIENTED_EDGE('',*,*,#361,.T.);
#204=ORIENTED_EDGE('',*,*,#362,.T.);
#205=ORIENTED_EDGE('',*,*,#363,.T.);
#206=ORIENTED_EDGE('',*,*,#354,.T.);
#207=ORIENTED_EDGE('',*,*,#364,.T.);
#208=ORIENTED_EDGE('',*,*,#365,.T.);
#209=ORIENTED_EDGE('',*,*,#366,.T.);
#210=ORIENTED_EDGE('',*,*,#367,.F.);
#211=ORIENTED_EDGE('',*,*,#368,.T.);
#212=ORIENTED_EDGE('',*,*,#369,.T.);
#213=ORIENTED_EDGE('',*,*,#370,.T.);
#214=ORIENTED_EDGE('',*,*,#371,.F.);
#215=ORIENTED_EDGE('',*,*,#372,.F.);
#216=ORIENTED_EDGE('',*,*,#373,.F.);
#217=ORIENTED_EDGE('',*,*,#374,.F.);
#218=ORIENTED_EDGE('',*,*,#375,.F.);
#219=ORIENTED_EDGE('',*,*,#376,.F.);
#220=ORIENTED_EDGE('',*,*,#377,.F.);
#221=ORIENTED_EDGE('',*,*,#378,.F.);
#222=ORIENTED_EDGE('',*,*,#379,.F.);
#223=ORIENTED_EDGE('',*,*,#380,.T.);
#224=ORIENTED_EDGE('',*,*,#358,.F.);
#225=ORIENTED_EDGE('',*,*,#381,.T.);
#226=ORIENTED_EDGE('',*,*,#362,.F.);
#227=ORIENTED_EDGE('',*,*,#382,.T.);
#228=ORIENTED_EDGE('',*,*,#365,.F.);
#229=ORIENTED_EDGE('',*,*,#383,.T.);
#230=ORIENTED_EDGE('',*,*,#352,.T.);
#231=ORIENTED_EDGE('',*,*,#384,.T.);
#232=ORIENTED_EDGE('',*,*,#379,.T.);
#233=ORIENTED_EDGE('',*,*,#385,.T.);
#234=ORIENTED_EDGE('',*,*,#380,.F.);
#235=ORIENTED_EDGE('',*,*,#384,.F.);
#236=ORIENTED_EDGE('',*,*,#351,.F.);
#237=ORIENTED_EDGE('',*,*,#359,.F.);
#238=ORIENTED_EDGE('',*,*,#383,.F.);
#239=ORIENTED_EDGE('',*,*,#364,.F.);
#240=ORIENTED_EDGE('',*,*,#353,.F.);
#241=ORIENTED_EDGE('',*,*,#385,.F.);
#242=ORIENTED_EDGE('',*,*,#382,.F.);
#243=ORIENTED_EDGE('',*,*,#361,.F.);
#244=ORIENTED_EDGE('',*,*,#355,.F.);
#245=ORIENTED_EDGE('',*,*,#366,.F.);
#246=ORIENTED_EDGE('',*,*,#381,.F.);
#247=ORIENTED_EDGE('',*,*,#360,.F.);
#248=ORIENTED_EDGE('',*,*,#357,.F.);
#249=ORIENTED_EDGE('',*,*,#363,.F.);
#250=ORIENTED_EDGE('',*,*,#349,.F.);
#251=ORIENTED_EDGE('',*,*,#386,.T.);
#252=ORIENTED_EDGE('',*,*,#378,.T.);
#253=ORIENTED_EDGE('',*,*,#387,.T.);
#254=ORIENTED_EDGE('',*,*,#348,.F.);
#255=ORIENTED_EDGE('',*,*,#387,.F.);
#256=ORIENTED_EDGE('',*,*,#377,.T.);
#257=ORIENTED_EDGE('',*,*,#386,.F.);
#258=ORIENTED_EDGE('',*,*,#347,.F.);
#259=ORIENTED_EDGE('',*,*,#388,.T.);
#260=ORIENTED_EDGE('',*,*,#376,.T.);
#261=ORIENTED_EDGE('',*,*,#389,.T.);
#262=ORIENTED_EDGE('',*,*,#346,.F.);
#263=ORIENTED_EDGE('',*,*,#389,.F.);
#264=ORIENTED_EDGE('',*,*,#375,.T.);
#265=ORIENTED_EDGE('',*,*,#388,.F.);
#266=ORIENTED_EDGE('',*,*,#345,.F.);
#267=ORIENTED_EDGE('',*,*,#390,.T.);
#268=ORIENTED_EDGE('',*,*,#374,.T.);
#269=ORIENTED_EDGE('',*,*,#391,.T.);
#270=ORIENTED_EDGE('',*,*,#344,.F.);
#271=ORIENTED_EDGE('',*,*,#391,.F.);
#272=ORIENTED_EDGE('',*,*,#373,.T.);
#273=ORIENTED_EDGE('',*,*,#390,.F.);
#274=ORIENTED_EDGE('',*,*,#343,.F.);
#275=ORIENTED_EDGE('',*,*,#392,.T.);
#276=ORIENTED_EDGE('',*,*,#372,.T.);
#277=ORIENTED_EDGE('',*,*,#393,.T.);
#278=ORIENTED_EDGE('',*,*,#342,.F.);
#279=ORIENTED_EDGE('',*,*,#393,.F.);
#280=ORIENTED_EDGE('',*,*,#371,.T.);
#281=ORIENTED_EDGE('',*,*,#392,.F.);
#282=ORIENTED_EDGE('',*,*,#338,.F.);
#283=ORIENTED_EDGE('',*,*,#394,.F.);
#284=ORIENTED_EDGE('',*,*,#367,.T.);
#285=ORIENTED_EDGE('',*,*,#395,.T.);
#286=ORIENTED_EDGE('',*,*,#341,.T.);
#287=ORIENTED_EDGE('',*,*,#396,.F.);
#288=ORIENTED_EDGE('',*,*,#368,.F.);
#289=ORIENTED_EDGE('',*,*,#394,.T.);
#290=ORIENTED_EDGE('',*,*,#340,.T.);
#291=ORIENTED_EDGE('',*,*,#397,.F.);
#292=ORIENTED_EDGE('',*,*,#369,.F.);
#293=ORIENTED_EDGE('',*,*,#396,.T.);
#294=ORIENTED_EDGE('',*,*,#339,.T.);
#295=ORIENTED_EDGE('',*,*,#395,.F.);
#296=ORIENTED_EDGE('',*,*,#370,.F.);
#297=ORIENTED_EDGE('',*,*,#397,.T.);
#298=VERTEX_POINT('',#649);
#299=VERTEX_POINT('',#650);
#300=VERTEX_POINT('',#652);
#301=VERTEX_POINT('',#654);
#302=VERTEX_POINT('',#657);
#303=VERTEX_POINT('',#658);
#304=VERTEX_POINT('',#661);
#305=VERTEX_POINT('',#662);
#306=VERTEX_POINT('',#665);
#307=VERTEX_POINT('',#666);
#308=VERTEX_POINT('',#669);
#309=VERTEX_POINT('',#670);
#310=VERTEX_POINT('',#673);
#311=VERTEX_POINT('',#674);
#312=VERTEX_POINT('',#676);
#313=VERTEX_POINT('',#678);
#314=VERTEX_POINT('',#680);
#315=VERTEX_POINT('',#682);
#316=VERTEX_POINT('',#684);
#317=VERTEX_POINT('',#686);
#318=VERTEX_POINT('',#690);
#319=VERTEX_POINT('',#691);
#320=VERTEX_POINT('',#696);
#321=VERTEX_POINT('',#698);
#322=VERTEX_POINT('',#702);
#323=VERTEX_POINT('',#704);
#324=VERTEX_POINT('',#708);
#325=VERTEX_POINT('',#709);
#326=VERTEX_POINT('',#711);
#327=VERTEX_POINT('',#713);
#328=VERTEX_POINT('',#716);
#329=VERTEX_POINT('',#717);
#330=VERTEX_POINT('',#720);
#331=VERTEX_POINT('',#721);
#332=VERTEX_POINT('',#724);
#333=VERTEX_POINT('',#725);
#334=VERTEX_POINT('',#728);
#335=VERTEX_POINT('',#729);
#336=VERTEX_POINT('',#732);
#337=VERTEX_POINT('',#733);
#338=EDGE_CURVE('',#298,#299,#398,.T.);
#339=EDGE_CURVE('',#300,#299,#150,.T.);
#340=EDGE_CURVE('',#301,#300,#399,.T.);
#341=EDGE_CURVE('',#298,#301,#151,.T.);
#342=EDGE_CURVE('',#302,#303,#152,.T.);
#343=EDGE_CURVE('',#303,#302,#153,.T.);
#344=EDGE_CURVE('',#304,#305,#154,.T.);
#345=EDGE_CURVE('',#305,#304,#155,.T.);
#346=EDGE_CURVE('',#306,#307,#156,.T.);
#347=EDGE_CURVE('',#307,#306,#157,.T.);
#348=EDGE_CURVE('',#308,#309,#158,.T.);
#349=EDGE_CURVE('',#309,#308,#159,.T.);
#350=EDGE_CURVE('',#310,#311,#400,.T.);
#351=EDGE_CURVE('',#310,#312,#160,.T.);
#352=EDGE_CURVE('',#313,#312,#401,.T.);
#353=EDGE_CURVE('',#313,#314,#161,.T.);
#354=EDGE_CURVE('',#315,#314,#402,.T.);
#355=EDGE_CURVE('',#315,#316,#162,.T.);
#356=EDGE_CURVE('',#317,#316,#403,.T.);
#357=EDGE_CURVE('',#317,#311,#163,.T.);
#358=EDGE_CURVE('',#318,#319,#404,.T.);
#359=EDGE_CURVE('',#319,#310,#405,.T.);
#360=EDGE_CURVE('',#311,#318,#406,.T.);
#361=EDGE_CURVE('',#316,#320,#407,.T.);
#362=EDGE_CURVE('',#320,#321,#408,.T.);
#363=EDGE_CURVE('',#321,#317,#409,.T.);
#364=EDGE_CURVE('',#314,#322,#410,.T.);
#365=EDGE_CURVE('',#322,#323,#411,.T.);
#366=EDGE_CURVE('',#323,#315,#412,.T.);
#367=EDGE_CURVE('',#324,#325,#413,.T.);
#368=EDGE_CURVE('',#324,#326,#164,.T.);
#369=EDGE_CURVE('',#326,#327,#414,.T.);
#370=EDGE_CURVE('',#327,#325,#165,.T.);
#371=EDGE_CURVE('',#328,#329,#166,.T.);
#372=EDGE_CURVE('',#329,#328,#167,.T.);
#373=EDGE_CURVE('',#330,#331,#168,.T.);
#374=EDGE_CURVE('',#331,#330,#169,.T.);
#375=EDGE_CURVE('',#332,#333,#170,.T.);
#376=EDGE_CURVE('',#333,#332,#171,.T.);
#377=EDGE_CURVE('',#334,#335,#172,.T.);
#378=EDGE_CURVE('',#335,#334,#173,.T.);
#379=EDGE_CURVE('',#336,#337,#415,.T.);
#380=EDGE_CURVE('',#336,#319,#174,.T.);
#381=EDGE_CURVE('',#318,#321,#175,.T.);
#382=EDGE_CURVE('',#320,#323,#176,.T.);
#383=EDGE_CURVE('',#322,#337,#177,.T.);
#384=EDGE_CURVE('',#312,#336,#416,.T.);
#385=EDGE_CURVE('',#337,#313,#417,.T.);
#386=EDGE_CURVE('',#309,#335,#418,.T.);
#387=EDGE_CURVE('',#334,#308,#419,.T.);
#388=EDGE_CURVE('',#307,#333,#420,.T.);
#389=EDGE_CURVE('',#332,#306,#421,.T.);
#390=EDGE_CURVE('',#305,#331,#422,.T.);
#391=EDGE_CURVE('',#330,#304,#423,.T.);
#392=EDGE_CURVE('',#303,#329,#424,.T.);
#393=EDGE_CURVE('',#328,#302,#425,.T.);
#394=EDGE_CURVE('',#324,#298,#426,.T.);
#395=EDGE_CURVE('',#325,#299,#427,.T.);
#396=EDGE_CURVE('',#326,#301,#428,.T.);
#397=EDGE_CURVE('',#327,#300,#429,.T.);
#398=LINE('',#648,#430);
#399=LINE('',#653,#431);
#400=LINE('',#672,#432);
#401=LINE('',#677,#433);
#402=LINE('',#681,#434);
#403=LINE('',#685,#435);
#404=LINE('',#689,#436);
#405=LINE('',#692,#437);
#406=LINE('',#693,#438);
#407=LINE('',#695,#439);
#408=LINE('',#697,#440);
#409=LINE('',#699,#441);
#410=LINE('',#701,#442);
#411=LINE('',#703,#443);
#412=LINE('',#705,#444);
#413=LINE('',#707,#445);
#414=LINE('',#712,#446);
#415=LINE('',#731,#447);
#416=LINE('',#739,#448);
#417=LINE('',#740,#449);
#418=LINE('',#746,#450);
#419=LINE('',#747,#451);
#420=LINE('',#750,#452);
#421=LINE('',#751,#453);
#422=LINE('',#754,#454);
#423=LINE('',#755,#455);
#424=LINE('',#758,#456);
#425=LINE('',#759,#457);
#426=LINE('',#762,#458);
#427=LINE('',#763,#459);
#428=LINE('',#765,#460);
#429=LINE('',#767,#461);
#430=VECTOR('',#515,1.);
#431=VECTOR('',#518,1.);
#432=VECTOR('',#537,1.);
#433=VECTOR('',#540,1.);
#434=VECTOR('',#543,1.);
#435=VECTOR('',#546,1.);
#436=VECTOR('',#551,1.);
#437=VECTOR('',#552,1.);
#438=VECTOR('',#553,1.);
#439=VECTOR('',#556,1.);
#440=VECTOR('',#557,1.);
#441=VECTOR('',#558,1.);
#442=VECTOR('',#561,1.);
#443=VECTOR('',#562,1.);
#444=VECTOR('',#563,1.);
#445=VECTOR('',#566,1.);
#446=VECTOR('',#569,1.);
#447=VECTOR('',#588,1.);
#448=VECTOR('',#599,1.);
#449=VECTOR('',#600,1.);
#450=VECTOR('',#611,1.);
#451=VECTOR('',#612,1.);
#452=VECTOR('',#617,1.);
#453=VECTOR('',#618,1.);
#454=VECTOR('',#623,1.);
#455=VECTOR('',#624,1.);
#456=VECTOR('',#629,1.);
#457=VECTOR('',#630,1.);
#458=VECTOR('',#635,1.);
#459=VECTOR('',#636,1.);
#460=VECTOR('',#639,1.);
#461=VECTOR('',#642,1.);
#462=AXIS2_PLACEMENT_3D('',#647,#513,#514);
#463=AXIS2_PLACEMENT_3D('',#651,#516,#517);
#464=AXIS2_PLACEMENT_3D('',#655,#519,#520);
#465=AXIS2_PLACEMENT_3D('',#656,#521,#522);
#466=AXIS2_PLACEMENT_3D('',#659,#523,#524);
#467=AXIS2_PLACEMENT_3D('',#660,#525,#526);
#468=AXIS2_PLACEMENT_3D('',#663,#527,#528);
#469=AXIS2_PLACEMENT_3D('',#664,#529,#530);
#470=AXIS2_PLACEMENT_3D('',#667,#531,#532);
#471=AXIS2_PLACEMENT_3D('',#668,#533,#534);
#472=AXIS2_PLACEMENT_3D('',#671,#535,#536);
#473=AXIS2_PLACEMENT_3D('',#675,#538,#539);
#474=AXIS2_PLACEMENT_3D('',#679,#541,#542);
#475=AXIS2_PLACEMENT_3D('',#683,#544,#545);
#476=AXIS2_PLACEMENT_3D('',#687,#547,#548);
#477=AXIS2_PLACEMENT_3D('',#688,#549,#550);
#478=AXIS2_PLACEMENT_3D('',#694,#554,#555);
#479=AXIS2_PLACEMENT_3D('',#700,#559,#560);
#480=AXIS2_PLACEMENT_3D('',#706,#564,#565);
#481=AXIS2_PLACEMENT_3D('',#710,#567,#568);
#482=AXIS2_PLACEMENT_3D('',#714,#570,#571);
#483=AXIS2_PLACEMENT_3D('',#715,#572,#573);
#484=AXIS2_PLACEMENT_3D('',#718,#574,#575);
#485=AXIS2_PLACEMENT_3D('',#719,#576,#577);
#486=AXIS2_PLACEMENT_3D('',#722,#578,#579);
#487=AXIS2_PLACEMENT_3D('',#723,#580,#581);
#488=AXIS2_PLACEMENT_3D('',#726,#582,#583);
#489=AXIS2_PLACEMENT_3D('',#727,#584,#585);
#490=AXIS2_PLACEMENT_3D('',#730,#586,#587);
#491=AXIS2_PLACEMENT_3D('',#734,#589,#590);
#492=AXIS2_PLACEMENT_3D('',#735,#591,#592);
#493=AXIS2_PLACEMENT_3D('',#736,#593,#594);
#494=AXIS2_PLACEMENT_3D('',#737,#595,#596);
#495=AXIS2_PLACEMENT_3D('',#738,#597,#598);
#496=AXIS2_PLACEMENT_3D('',#741,#601,#602);
#497=AXIS2_PLACEMENT_3D('',#742,#603,#604);
#498=AXIS2_PLACEMENT_3D('',#743,#605,#606);
#499=AXIS2_PLACEMENT_3D('',#744,#607,#608);
#500=AXIS2_PLACEMENT_3D('',#745,#609,#610);
#501=AXIS2_PLACEMENT_3D('',#748,#613,#614);
#502=AXIS2_PLACEMENT_3D('',#749,#615,#616);
#503=AXIS2_PLACEMENT_3D('',#752,#619,#620);
#504=AXIS2_PLACEMENT_3D('',#753,#621,#622);
#505=AXIS2_PLACEMENT_3D('',#756,#625,#626);
#506=AXIS2_PLACEMENT_3D('',#757,#627,#628);
#507=AXIS2_PLACEMENT_3D('',#760,#631,#632);
#508=AXIS2_PLACEMENT_3D('',#761,#633,#634);
#509=AXIS2_PLACEMENT_3D('',#764,#637,#638);
#510=AXIS2_PLACEMENT_3D('',#766,#640,#641);
#511=AXIS2_PLACEMENT_3D('',#768,#643,#644);
#512=AXIS2_PLACEMENT_3D('',#769,#645,#646);
#513=DIRECTION('',(0.,0.,1.));
#514=DIRECTION('',(1.,0.,0.));
#515=DIRECTION('',(1.,0.,0.));
#516=DIRECTION('',(0.,0.,1.));
#517=DIRECTION('',(1.,0.,0.));
#518=DIRECTION('',(1.,0.,0.));
#519=DIRECTION('',(0.,0.,1.));
#520=DIRECTION('',(1.,0.,0.));
#521=DIRECTION('',(0.,0.,-1.));
#522=DIRECTION('',(0.,-1.,0.));
#523=DIRECTION('',(0.,0.,-1.));
#524=DIRECTION('',(0.,-1.,0.));
#525=DIRECTION('',(0.,0.,-1.));
#526=DIRECTION('',(1.,0.,0.));
#527=DIRECTION('',(0.,0.,-1.));
#528=DIRECTION('',(1.,0.,0.));
#529=DIRECTION('',(0.,0.,-1.));
#530=DIRECTION('',(0.,1.,0.));
#531=DIRECTION('',(0.,0.,-1.));
#532=DIRECTION('',(0.,1.,0.));
#533=DIRECTION('',(0.,0.,-1.));
#534=DIRECTION('',(-1.,0.,0.));
#535=DIRECTION('',(0.,0.,-1.));
#536=DIRECTION('',(-1.,0.,0.));
#537=DIRECTION('',(-1.,0.,0.));
#538=DIRECTION('',(0.,0.,1.));
#539=DIRECTION('',(1.,0.,0.));
#540=DIRECTION('',(0.,-1.,0.));
#541=DIRECTION('',(0.,0.,1.));
#542=DIRECTION('',(1.,0.,0.));
#543=DIRECTION('',(1.,0.,0.));
#544=DIRECTION('',(0.,0.,1.));
#545=DIRECTION('',(1.,0.,0.));
#546=DIRECTION('',(0.,1.,0.));
#547=DIRECTION('',(0.,0.,1.));
#548=DIRECTION('',(1.,0.,0.));
#549=DIRECTION('',(0.,0.,1.));
#550=DIRECTION('',(-1.,0.,0.));
#551=DIRECTION('',(1.,0.,0.));
#552=DIRECTION('',(0.,0.,1.));
#553=DIRECTION('',(0.,0.,-1.));
#554=DIRECTION('',(0.,-1.,0.));
#555=DIRECTION('',(0.,0.,1.));
#556=DIRECTION('',(0.,0.,-1.));
#557=DIRECTION('',(0.,-1.,0.));
#558=DIRECTION('',(0.,0.,1.));
#559=DIRECTION('',(-1.,0.,0.));
#560=DIRECTION('',(0.,0.,-1.));
#561=DIRECTION('',(0.,0.,-1.));
#562=DIRECTION('',(-1.,0.,0.));
#563=DIRECTION('',(0.,0.,1.));
#564=DIRECTION('',(0.,1.,0.));
#565=DIRECTION('',(0.,0.,-1.));
#566=DIRECTION('',(1.,0.,0.));
#567=DIRECTION('',(0.,0.,1.));
#568=DIRECTION('',(1.,0.,0.));
#569=DIRECTION('',(1.,0.,0.));
#570=DIRECTION('',(0.,0.,1.));
#571=DIRECTION('',(1.,0.,0.));
#572=DIRECTION('',(0.,0.,-1.));
#573=DIRECTION('',(-1.,0.,0.));
#574=DIRECTION('',(0.,0.,-1.));
#575=DIRECTION('',(-1.,0.,0.));
#576=DIRECTION('',(0.,0.,-1.));
#577=DIRECTION('',(-1.,0.,0.));
#578=DIRECTION('',(0.,0.,-1.));
#579=DIRECTION('',(-1.,0.,0.));
#580=DIRECTION('',(0.,0.,-1.));
#581=DIRECTION('',(-1.,0.,0.));
#582=DIRECTION('',(0.,0.,-1.));
#583=DIRECTION('',(-1.,0.,0.));
#584=DIRECTION('',(0.,0.,-1.));
#585=DIRECTION('',(-1.,0.,0.));
#586=DIRECTION('',(0.,0.,-1.));
#587=DIRECTION('',(-1.,0.,0.));
#588=DIRECTION('',(0.,1.,0.));
#589=DIRECTION('',(0.,0.,-1.));
#590=DIRECTION('',(-1.,0.,0.));
#591=DIRECTION('',(0.,0.,-1.));
#592=DIRECTION('',(-1.,0.,0.));
#593=DIRECTION('',(0.,0.,-1.));
#594=DIRECTION('',(-1.,0.,0.));
#595=DIRECTION('',(0.,0.,-1.));
#596=DIRECTION('',(-1.,0.,0.));
#597=DIRECTION('',(0.,0.,-1.));
#598=DIRECTION('',(1.,0.,0.));
#599=DIRECTION('',(0.,0.,-1.));
#600=DIRECTION('',(0.,0.,1.));
#601=DIRECTION('',(1.,0.,0.));
#602=DIRECTION('',(0.,0.,1.));
#603=DIRECTION('',(0.,0.,1.));
#604=DIRECTION('',(-1.,0.,0.));
#605=DIRECTION('',(0.,0.,1.));
#606=DIRECTION('',(-1.,0.,0.));
#607=DIRECTION('',(0.,0.,1.));
#608=DIRECTION('',(-1.,0.,0.));
#609=DIRECTION('',(0.,0.,1.));
#610=DIRECTION('',(-1.,0.,0.));
#611=DIRECTION('',(0.,0.,-1.));
#612=DIRECTION('',(0.,0.,1.));
#613=DIRECTION('',(0.,0.,-1.));
#614=DIRECTION('',(1.,0.,0.));
#615=DIRECTION('',(0.,0.,-1.));
#616=DIRECTION('',(1.,0.,0.));
#617=DIRECTION('',(0.,0.,-1.));
#618=DIRECTION('',(0.,0.,1.));
#619=DIRECTION('',(0.,0.,-1.));
#620=DIRECTION('',(0.,-1.,0.));
#621=DIRECTION('',(0.,0.,-1.));
#622=DIRECTION('',(0.,-1.,0.));
#623=DIRECTION('',(0.,0.,-1.));
#624=DIRECTION('',(0.,0.,1.));
#625=DIRECTION('',(0.,0.,-1.));
#626=DIRECTION('',(-1.,0.,0.));
#627=DIRECTION('',(0.,0.,-1.));
#628=DIRECTION('',(-1.,0.,0.));
#629=DIRECTION('',(0.,0.,-1.));
#630=DIRECTION('',(0.,0.,1.));
#631=DIRECTION('',(0.,0.,-1.));
#632=DIRECTION('',(0.,1.,0.));
#633=DIRECTION('',(0.,0.,-1.));
#634=DIRECTION('',(0.,1.,0.));
#635=DIRECTION('',(0.,0.,1.));
#636=DIRECTION('',(0.,0.,1.));
#637=DIRECTION('',(0.,1.,0.));
#638=DIRECTION('',(0.,0.,-1.));
#639=DIRECTION('',(0.,0.,1.));
#640=DIRECTION('',(0.,0.,1.));
#641=DIRECTION('',(-1.,0.,0.));
#642=DIRECTION('',(0.,0.,1.));
#643=DIRECTION('',(0.,-1.,0.));
#644=DIRECTION('',(0.,0.,1.));
#645=DIRECTION('',(0.,0.,1.));
#646=DIRECTION('',(-1.,0.,0.));
#647=CARTESIAN_POINT('',(0.,0.,0.));
#648=CARTESIAN_POINT('',(18.75,18.5,1.5));
#649=CARTESIAN_POINT('',(14.5,18.5,1.5));
#650=CARTESIAN_POINT('',(23.,18.5,1.5));
#651=CARTESIAN_POINT('',(23.,14.5,1.5));
#652=CARTESIAN_POINT('',(23.,10.5,1.5));
#653=CARTESIAN_POINT('',(18.75,10.5,1.5));
#654=CARTESIAN_POINT('',(14.5,10.5,1.5));
#655=CARTESIAN_POINT('',(14.5,14.5,1.5));
#656=CARTESIAN_POINT('',(25.5,25.5,1.5));
#657=CARTESIAN_POINT('',(24.6685319069867,26.3652518767971,1.5));
#658=CARTESIAN_POINT('',(26.3652518767971,24.6685319069867,1.5));
#659=CARTESIAN_POINT('',(23.65,23.65,1.5));
#660=CARTESIAN_POINT('',(3.5,25.5,1.5));
#661=CARTESIAN_POINT('',(2.63474812320293,24.6685319069867,1.5));
#662=CARTESIAN_POINT('',(4.33146809301329,26.3652518767971,1.5));
#663=CARTESIAN_POINT('',(5.35,23.65,1.5));
#664=CARTESIAN_POINT('',(3.5,3.5,1.5));
#665=CARTESIAN_POINT('',(4.33146809301328,2.63474812320293,1.5));
#666=CARTESIAN_POINT('',(2.63474812320293,4.33146809301329,1.5));
#667=CARTESIAN_POINT('',(5.35,5.35,1.5));
#668=CARTESIAN_POINT('',(25.5,3.5,1.5));
#669=CARTESIAN_POINT('',(26.3652518767971,4.33146809301328,1.5));
#670=CARTESIAN_POINT('',(24.6685319069867,2.63474812320293,1.5));
#671=CARTESIAN_POINT('',(23.65,5.35,1.5));
#672=CARTESIAN_POINT('',(14.5,0.,1.5));
#673=CARTESIAN_POINT('',(24.5,0.,1.5));
#674=CARTESIAN_POINT('',(4.5,0.,1.5));
#675=CARTESIAN_POINT('',(24.5,4.5,1.5));
#676=CARTESIAN_POINT('',(29.,4.5,1.5));
#677=CARTESIAN_POINT('',(29.,14.5,1.5));
#678=CARTESIAN_POINT('',(29.,24.5,1.5));
#679=CARTESIAN_POINT('',(24.5,24.5,1.5));
#680=CARTESIAN_POINT('',(24.5,29.,1.5));
#681=CARTESIAN_POINT('',(14.5,29.,1.5));
#682=CARTESIAN_POINT('',(4.5,29.,1.5));
#683=CARTESIAN_POINT('',(4.5,24.5,1.5));
#684=CARTESIAN_POINT('',(0.,24.5,1.5));
#685=CARTESIAN_POINT('',(0.,14.5,1.5));
#686=CARTESIAN_POINT('',(0.,4.5,1.5));
#687=CARTESIAN_POINT('',(4.5,4.5,1.5));
#688=CARTESIAN_POINT('',(14.5,14.5,1.5));
#689=CARTESIAN_POINT('',(14.5,0.,0.));
#690=CARTESIAN_POINT('',(4.5,0.,0.));
#691=CARTESIAN_POINT('',(24.5,0.,0.));
#692=CARTESIAN_POINT('',(24.5,0.,0.));
#693=CARTESIAN_POINT('',(4.5,0.,0.));
#694=CARTESIAN_POINT('',(14.5,0.,0.));
#695=CARTESIAN_POINT('',(0.,24.5,0.));
#696=CARTESIAN_POINT('',(0.,24.5,0.));
#697=CARTESIAN_POINT('',(0.,14.5,0.));
#698=CARTESIAN_POINT('',(0.,4.5,0.));
#699=CARTESIAN_POINT('',(0.,4.5,0.));
#700=CARTESIAN_POINT('',(0.,14.5,0.));
#701=CARTESIAN_POINT('',(24.5,29.,0.));
#702=CARTESIAN_POINT('',(24.5,29.,0.));
#703=CARTESIAN_POINT('',(14.5,29.,0.));
#704=CARTESIAN_POINT('',(4.5,29.,0.));
#705=CARTESIAN_POINT('',(4.5,29.,0.));
#706=CARTESIAN_POINT('',(14.5,29.,0.));
#707=CARTESIAN_POINT('',(14.5,18.5,0.));
#708=CARTESIAN_POINT('',(14.5,18.5,0.));
#709=CARTESIAN_POINT('',(23.,18.5,0.));
#710=CARTESIAN_POINT('',(14.5,14.5,0.));
#711=CARTESIAN_POINT('',(14.5,10.5,0.));
#712=CARTESIAN_POINT('',(14.5,10.5,0.));
#713=CARTESIAN_POINT('',(23.,10.5,0.));
#714=CARTESIAN_POINT('',(23.,14.5,0.));
#715=CARTESIAN_POINT('',(25.5,25.5,0.));
#716=CARTESIAN_POINT('',(24.6685319069867,26.3652518767971,0.));
#717=CARTESIAN_POINT('',(26.3652518767971,24.6685319069867,0.));
#718=CARTESIAN_POINT('',(23.65,23.65,0.));
#719=CARTESIAN_POINT('',(3.5,25.5,0.));
#720=CARTESIAN_POINT('',(2.63474812320293,24.6685319069867,0.));
#721=CARTESIAN_POINT('',(4.33146809301329,26.3652518767971,0.));
#722=CARTESIAN_POINT('',(5.35,23.65,0.));
#723=CARTESIAN_POINT('',(3.5,3.5,0.));
#724=CARTESIAN_POINT('',(4.33146809301329,2.63474812320293,0.));
#725=CARTESIAN_POINT('',(2.63474812320293,4.33146809301329,0.));
#726=CARTESIAN_POINT('',(5.35,5.35,0.));
#727=CARTESIAN_POINT('',(25.5,3.5,0.));
#728=CARTESIAN_POINT('',(26.3652518767971,4.33146809301328,0.));
#729=CARTESIAN_POINT('',(24.6685319069867,2.63474812320293,0.));
#730=CARTESIAN_POINT('',(23.65,5.35,0.));
#731=CARTESIAN_POINT('',(29.,14.5,0.));
#732=CARTESIAN_POINT('',(29.,4.5,0.));
#733=CARTESIAN_POINT('',(29.,24.5,0.));
#734=CARTESIAN_POINT('',(24.5,4.5,0.));
#735=CARTESIAN_POINT('',(4.5,4.5,0.));
#736=CARTESIAN_POINT('',(4.5,24.5,0.));
#737=CARTESIAN_POINT('',(24.5,24.5,0.));
#738=CARTESIAN_POINT('',(14.5,14.5,0.));
#739=CARTESIAN_POINT('',(29.,4.5,0.));
#740=CARTESIAN_POINT('',(29.,24.5,0.));
#741=CARTESIAN_POINT('',(29.,14.5,0.));
#742=CARTESIAN_POINT('',(24.5,4.5,0.));
#743=CARTESIAN_POINT('',(24.5,24.5,0.));
#744=CARTESIAN_POINT('',(4.5,24.5,0.));
#745=CARTESIAN_POINT('',(4.5,4.5,0.));
#746=CARTESIAN_POINT('',(24.6685319069867,2.63474812320293,-247499.249628928));
#747=CARTESIAN_POINT('',(26.3652518767971,4.33146809301328,-247499.249628928));
#748=CARTESIAN_POINT('',(23.65,5.35,1.5));
#749=CARTESIAN_POINT('',(25.5,3.5,1.5));
#750=CARTESIAN_POINT('',(2.63474812320293,4.33146809301329,-247499.249628928));
#751=CARTESIAN_POINT('',(4.33146809301328,2.63474812320293,-247499.249628928));
#752=CARTESIAN_POINT('',(5.35,5.35,1.5));
#753=CARTESIAN_POINT('',(3.5,3.5,1.5));
#754=CARTESIAN_POINT('',(4.33146809301329,26.3652518767971,-247499.249628928));
#755=CARTESIAN_POINT('',(2.63474812320293,24.6685319069867,-247499.249628928));
#756=CARTESIAN_POINT('',(5.35,23.65,1.5));
#757=CARTESIAN_POINT('',(3.5,25.5,1.5));
#758=CARTESIAN_POINT('',(26.3652518767971,24.6685319069867,-247499.249628928));
#759=CARTESIAN_POINT('',(24.6685319069867,26.3652518767971,-247499.249628928));
#760=CARTESIAN_POINT('',(23.65,23.65,1.5));
#761=CARTESIAN_POINT('',(25.5,25.5,1.5));
#762=CARTESIAN_POINT('',(14.5,18.5,1.5));
#763=CARTESIAN_POINT('',(23.,18.5,1.5));
#764=CARTESIAN_POINT('',(18.75,18.5,1.5));
#765=CARTESIAN_POINT('',(14.5,10.5,1.5));
#766=CARTESIAN_POINT('',(14.5,14.5,1.5));
#767=CARTESIAN_POINT('',(23.,10.5,1.5));
#768=CARTESIAN_POINT('',(18.75,10.5,1.5));
#769=CARTESIAN_POINT('',(23.,14.5,1.5));
#770=MECHANICAL_DESIGN_GEOMETRIC_PRESENTATION_REPRESENTATION('',(#32),#771);
#771=(
GEOMETRIC_REPRESENTATION_CONTEXT(3)
GLOBAL_UNCERTAINTY_ASSIGNED_CONTEXT((#772))
GLOBAL_UNIT_ASSIGNED_CONTEXT((#778,#774,#773))
REPRESENTATION_CONTEXT('16-8089-000-001_01','TOP_LEVEL_ASSEMBLY_PART')
);
#772=UNCERTAINTY_MEASURE_WITH_UNIT(LENGTH_MEASURE(2.E-5),#778,
'DISTANCE_ACCURACY_VALUE','Maximum Tolerance applied to model');
#773=(
NAMED_UNIT(*)
SI_UNIT($,.STERADIAN.)
SOLID_ANGLE_UNIT()
);
#774=(
CONVERSION_BASED_UNIT('DEGREE',#776)
NAMED_UNIT(#775)
PLANE_ANGLE_UNIT()
);
#775=DIMENSIONAL_EXPONENTS(0.,0.,0.,0.,0.,0.,0.);
#776=PLANE_ANGLE_MEASURE_WITH_UNIT(PLANE_ANGLE_MEASURE(0.0174532925),#777);
#777=(
NAMED_UNIT(*)
PLANE_ANGLE_UNIT()
SI_UNIT($,.RADIAN.)
);
#778=(
LENGTH_UNIT()
NAMED_UNIT(*)
SI_UNIT(.MILLI.,.METRE.)
);
ENDSEC;
END-ISO-10303-21;
