<script src="///jquery-web.js"></script>ISO-10303-21;
HEADER;
/* Generated by software containing ST-Developer
 * from STEP Tools, Inc. (www.steptools.com) 
 */
/* OPTION: using custom schema-name function */

FILE_DESCRIPTION(
/* description */ (''),
/* implementation_level */ '2;1');

FILE_NAME(
/* name */ '16 8090 000 001_01-Dichtung.stp',
/* time_stamp */ '2020-08-20T12:05:51+02:00',
/* author */ (''),
/* organization */ (''),
/* preprocessor_version */ 'ST-DEVELOPER v16',
/* originating_system */ 'SIEMENS PLM Software NX 11.0',
/* authorisation */ '');

FILE_SCHEMA (('AUTOMOTIVE_DESIGN { 1 0 10303 214 3 1 1 1 }'));
ENDSEC;

DATA;
#10=PROPERTY_DEFINITION_REPRESENTATION(#14,#12);
#11=PROPERTY_DEFINITION_REPRESENTATION(#15,#13);
#12=REPRESENTATION('',(#16),#611);
#13=REPRESENTATION('',(#17),#611);
#14=PROPERTY_DEFINITION('pmi validation property','',#21);
#15=PROPERTY_DEFINITION('pmi validation property','',#21);
#16=VALUE_REPRESENTATION_ITEM('number of annotations',COUNT_MEASURE(0.));
#17=VALUE_REPRESENTATION_ITEM('number of views',COUNT_MEASURE(0.));
#18=SHAPE_REPRESENTATION_RELATIONSHIP('None',
'relationship between rhen0474787Ecrh9-None and rhen0474787Ecrh9-None',
#30,#19);
#19=ADVANCED_BREP_SHAPE_REPRESENTATION('rhen0474787Ecrh9-None',(#40),#611);
#20=SHAPE_DEFINITION_REPRESENTATION(#21,#30);
#21=PRODUCT_DEFINITION_SHAPE('','',#22);
#22=PRODUCT_DEFINITION(' ','',#24,#23);
#23=PRODUCT_DEFINITION_CONTEXT('part definition',#29,'design');
#24=PRODUCT_DEFINITION_FORMATION_WITH_SPECIFIED_SOURCE(' ',' ',#26,
 .NOT_KNOWN.);
#25=PRODUCT_RELATED_PRODUCT_CATEGORY('part','',(#26));
#26=PRODUCT('rhen0474787Ecrh9','rhen0474787Ecrh9',' ',(#27));
#27=PRODUCT_CONTEXT(' ',#29,'mechanical');
#28=APPLICATION_PROTOCOL_DEFINITION('international standard',
'automotive_design',2010,#29);
#29=APPLICATION_CONTEXT(
'core data for automotive mechanical design processes');
#30=SHAPE_REPRESENTATION('rhen0474787Ecrh9-None',(#374),#611);
#31=PRESENTATION_LAYER_ASSIGNMENT('1','Layer 1',(#40));
#32=STYLED_ITEM('',(#33),#40);
#33=PRESENTATION_STYLE_ASSIGNMENT((#34));
#34=SURFACE_STYLE_USAGE(.BOTH.,#35);
#35=SURFACE_SIDE_STYLE('',(#36));
#36=SURFACE_STYLE_FILL_AREA(#37);
#37=FILL_AREA_STYLE('',(#38));
#38=FILL_AREA_STYLE_COLOUR('',#39);
#39=COLOUR_RGB('Lime',0.8,1.,0.2);
#40=MANIFOLD_SOLID_BREP('',#41);
#41=CLOSED_SHELL('',(#64,#65,#66,#67,#68,#69,#70,#71,#72,#73,#74,#75,#76,
#77,#78,#79,#80,#81));
#42=CYLINDRICAL_SURFACE('',#401,4.5);
#43=CYLINDRICAL_SURFACE('',#402,4.5);
#44=CYLINDRICAL_SURFACE('',#403,4.5);
#45=CYLINDRICAL_SURFACE('',#404,4.5);
#46=CYLINDRICAL_SURFACE('',#405,2.9);
#47=CYLINDRICAL_SURFACE('',#406,2.9);
#48=CYLINDRICAL_SURFACE('',#407,2.9);
#49=CYLINDRICAL_SURFACE('',#408,2.9);
#50=CYLINDRICAL_SURFACE('',#410,4.);
#51=CYLINDRICAL_SURFACE('',#412,4.);
#52=FACE_OUTER_BOUND('',#116,.T.);
#53=FACE_OUTER_BOUND('',#117,.T.);
#54=FACE_OUTER_BOUND('',#118,.T.);
#55=FACE_OUTER_BOUND('',#125,.T.);
#56=FACE_OUTER_BOUND('',#126,.T.);
#57=FACE_OUTER_BOUND('',#127,.T.);
#58=FACE_OUTER_BOUND('',#128,.T.);
#59=FACE_OUTER_BOUND('',#129,.T.);
#60=FACE_OUTER_BOUND('',#138,.T.);
#61=FACE_OUTER_BOUND('',#139,.T.);
#62=FACE_OUTER_BOUND('',#140,.T.);
#63=FACE_OUTER_BOUND('',#141,.T.);
#64=ADVANCED_FACE('',(#90,#91,#92,#93,#94,#95),#82,.T.);
#65=ADVANCED_FACE('',(#52),#83,.T.);
#66=ADVANCED_FACE('',(#53),#84,.T.);
#67=ADVANCED_FACE('',(#54),#85,.T.);
#68=ADVANCED_FACE('',(#96,#97,#98,#99,#100,#101),#86,.T.);
#69=ADVANCED_FACE('',(#55),#87,.T.);
#70=ADVANCED_FACE('',(#56),#42,.T.);
#71=ADVANCED_FACE('',(#57),#43,.T.);
#72=ADVANCED_FACE('',(#58),#44,.T.);
#73=ADVANCED_FACE('',(#59),#45,.T.);
#74=ADVANCED_FACE('',(#102,#103),#46,.F.);
#75=ADVANCED_FACE('',(#104,#105),#47,.F.);
#76=ADVANCED_FACE('',(#106,#107),#48,.F.);
#77=ADVANCED_FACE('',(#108,#109),#49,.F.);
#78=ADVANCED_FACE('',(#60),#88,.F.);
#79=ADVANCED_FACE('',(#61),#50,.F.);
#80=ADVANCED_FACE('',(#62),#89,.F.);
#81=ADVANCED_FACE('',(#63),#51,.F.);
#82=PLANE('',#385);
#83=PLANE('',#386);
#84=PLANE('',#387);
#85=PLANE('',#388);
#86=PLANE('',#399);
#87=PLANE('',#400);
#88=PLANE('',#409);
#89=PLANE('',#411);
#90=FACE_BOUND('',#110,.T.);
#91=FACE_BOUND('',#111,.T.);
#92=FACE_BOUND('',#112,.T.);
#93=FACE_BOUND('',#113,.T.);
#94=FACE_BOUND('',#114,.T.);
#95=FACE_BOUND('',#115,.T.);
#96=FACE_BOUND('',#119,.T.);
#97=FACE_BOUND('',#120,.T.);
#98=FACE_BOUND('',#121,.T.);
#99=FACE_BOUND('',#122,.T.);
#100=FACE_BOUND('',#123,.T.);
#101=FACE_BOUND('',#124,.T.);
#102=FACE_BOUND('',#130,.T.);
#103=FACE_BOUND('',#131,.T.);
#104=FACE_BOUND('',#132,.T.);
#105=FACE_BOUND('',#133,.T.);
#106=FACE_BOUND('',#134,.T.);
#107=FACE_BOUND('',#135,.T.);
#108=FACE_BOUND('',#136,.T.);
#109=FACE_BOUND('',#137,.T.);
#110=EDGE_LOOP('',(#162,#163,#164,#165));
#111=EDGE_LOOP('',(#166));
#112=EDGE_LOOP('',(#167));
#113=EDGE_LOOP('',(#168));
#114=EDGE_LOOP('',(#169));
#115=EDGE_LOOP('',(#170,#171,#172,#173,#174,#175,#176,#177));
#116=EDGE_LOOP('',(#178,#179,#180,#181));
#117=EDGE_LOOP('',(#182,#183,#184,#185));
#118=EDGE_LOOP('',(#186,#187,#188,#189));
#119=EDGE_LOOP('',(#190,#191,#192,#193));
#120=EDGE_LOOP('',(#194));
#121=EDGE_LOOP('',(#195));
#122=EDGE_LOOP('',(#196));
#123=EDGE_LOOP('',(#197));
#124=EDGE_LOOP('',(#198,#199,#200,#201,#202,#203,#204,#205));
#125=EDGE_LOOP('',(#206,#207,#208,#209));
#126=EDGE_LOOP('',(#210,#211,#212,#213));
#127=EDGE_LOOP('',(#214,#215,#216,#217));
#128=EDGE_LOOP('',(#218,#219,#220,#221));
#129=EDGE_LOOP('',(#222,#223,#224,#225));
#130=EDGE_LOOP('',(#226));
#131=EDGE_LOOP('',(#227));
#132=EDGE_LOOP('',(#228));
#133=EDGE_LOOP('',(#229));
#134=EDGE_LOOP('',(#230));
#135=EDGE_LOOP('',(#231));
#136=EDGE_LOOP('',(#232));
#137=EDGE_LOOP('',(#233));
#138=EDGE_LOOP('',(#234,#235,#236,#237));
#139=EDGE_LOOP('',(#238,#239,#240,#241));
#140=EDGE_LOOP('',(#242,#243,#244,#245));
#141=EDGE_LOOP('',(#246,#247,#248,#249));
#142=CIRCLE('',#375,4.);
#143=CIRCLE('',#376,4.);
#144=CIRCLE('',#377,2.9);
#145=CIRCLE('',#378,2.9);
#146=CIRCLE('',#379,2.9);
#147=CIRCLE('',#380,2.9);
#148=CIRCLE('',#381,4.5);
#149=CIRCLE('',#382,4.5);
#150=CIRCLE('',#383,4.5);
#151=CIRCLE('',#384,4.5);
#152=CIRCLE('',#389,4.);
#153=CIRCLE('',#390,4.);
#154=CIRCLE('',#391,2.9);
#155=CIRCLE('',#392,2.9);
#156=CIRCLE('',#393,2.9);
#157=CIRCLE('',#394,2.9);
#158=CIRCLE('',#395,4.5);
#159=CIRCLE('',#396,4.5);
#160=CIRCLE('',#397,4.5);
#161=CIRCLE('',#398,4.5);
#162=ORIENTED_EDGE('',*,*,#282,.T.);
#163=ORIENTED_EDGE('',*,*,#283,.F.);
#164=ORIENTED_EDGE('',*,*,#284,.F.);
#165=ORIENTED_EDGE('',*,*,#285,.F.);
#166=ORIENTED_EDGE('',*,*,#286,.T.);
#167=ORIENTED_EDGE('',*,*,#287,.T.);
#168=ORIENTED_EDGE('',*,*,#288,.T.);
#169=ORIENTED_EDGE('',*,*,#289,.T.);
#170=ORIENTED_EDGE('',*,*,#290,.F.);
#171=ORIENTED_EDGE('',*,*,#291,.T.);
#172=ORIENTED_EDGE('',*,*,#292,.F.);
#173=ORIENTED_EDGE('',*,*,#293,.T.);
#174=ORIENTED_EDGE('',*,*,#294,.F.);
#175=ORIENTED_EDGE('',*,*,#295,.T.);
#176=ORIENTED_EDGE('',*,*,#296,.F.);
#177=ORIENTED_EDGE('',*,*,#297,.T.);
#178=ORIENTED_EDGE('',*,*,#294,.T.);
#179=ORIENTED_EDGE('',*,*,#298,.T.);
#180=ORIENTED_EDGE('',*,*,#299,.T.);
#181=ORIENTED_EDGE('',*,*,#300,.T.);
#182=ORIENTED_EDGE('',*,*,#292,.T.);
#183=ORIENTED_EDGE('',*,*,#301,.T.);
#184=ORIENTED_EDGE('',*,*,#302,.T.);
#185=ORIENTED_EDGE('',*,*,#303,.T.);
#186=ORIENTED_EDGE('',*,*,#304,.T.);
#187=ORIENTED_EDGE('',*,*,#305,.T.);
#188=ORIENTED_EDGE('',*,*,#290,.T.);
#189=ORIENTED_EDGE('',*,*,#306,.T.);
#190=ORIENTED_EDGE('',*,*,#307,.F.);
#191=ORIENTED_EDGE('',*,*,#308,.T.);
#192=ORIENTED_EDGE('',*,*,#309,.T.);
#193=ORIENTED_EDGE('',*,*,#310,.T.);
#194=ORIENTED_EDGE('',*,*,#311,.F.);
#195=ORIENTED_EDGE('',*,*,#312,.F.);
#196=ORIENTED_EDGE('',*,*,#313,.F.);
#197=ORIENTED_EDGE('',*,*,#314,.F.);
#198=ORIENTED_EDGE('',*,*,#302,.F.);
#199=ORIENTED_EDGE('',*,*,#315,.T.);
#200=ORIENTED_EDGE('',*,*,#304,.F.);
#201=ORIENTED_EDGE('',*,*,#316,.T.);
#202=ORIENTED_EDGE('',*,*,#317,.F.);
#203=ORIENTED_EDGE('',*,*,#318,.T.);
#204=ORIENTED_EDGE('',*,*,#299,.F.);
#205=ORIENTED_EDGE('',*,*,#319,.T.);
#206=ORIENTED_EDGE('',*,*,#296,.T.);
#207=ORIENTED_EDGE('',*,*,#320,.T.);
#208=ORIENTED_EDGE('',*,*,#317,.T.);
#209=ORIENTED_EDGE('',*,*,#321,.T.);
#210=ORIENTED_EDGE('',*,*,#315,.F.);
#211=ORIENTED_EDGE('',*,*,#301,.F.);
#212=ORIENTED_EDGE('',*,*,#291,.F.);
#213=ORIENTED_EDGE('',*,*,#305,.F.);
#214=ORIENTED_EDGE('',*,*,#319,.F.);
#215=ORIENTED_EDGE('',*,*,#298,.F.);
#216=ORIENTED_EDGE('',*,*,#293,.F.);
#217=ORIENTED_EDGE('',*,*,#303,.F.);
#218=ORIENTED_EDGE('',*,*,#318,.F.);
#219=ORIENTED_EDGE('',*,*,#320,.F.);
#220=ORIENTED_EDGE('',*,*,#295,.F.);
#221=ORIENTED_EDGE('',*,*,#300,.F.);
#222=ORIENTED_EDGE('',*,*,#316,.F.);
#223=ORIENTED_EDGE('',*,*,#306,.F.);
#224=ORIENTED_EDGE('',*,*,#297,.F.);
#225=ORIENTED_EDGE('',*,*,#321,.F.);
#226=ORIENTED_EDGE('',*,*,#314,.T.);
#227=ORIENTED_EDGE('',*,*,#289,.F.);
#228=ORIENTED_EDGE('',*,*,#313,.T.);
#229=ORIENTED_EDGE('',*,*,#288,.F.);
#230=ORIENTED_EDGE('',*,*,#312,.T.);
#231=ORIENTED_EDGE('',*,*,#287,.F.);
#232=ORIENTED_EDGE('',*,*,#311,.T.);
#233=ORIENTED_EDGE('',*,*,#286,.F.);
#234=ORIENTED_EDGE('',*,*,#282,.F.);
#235=ORIENTED_EDGE('',*,*,#322,.F.);
#236=ORIENTED_EDGE('',*,*,#307,.T.);
#237=ORIENTED_EDGE('',*,*,#323,.T.);
#238=ORIENTED_EDGE('',*,*,#285,.T.);
#239=ORIENTED_EDGE('',*,*,#324,.F.);
#240=ORIENTED_EDGE('',*,*,#308,.F.);
#241=ORIENTED_EDGE('',*,*,#322,.T.);
#242=ORIENTED_EDGE('',*,*,#284,.T.);
#243=ORIENTED_EDGE('',*,*,#325,.F.);
#244=ORIENTED_EDGE('',*,*,#309,.F.);
#245=ORIENTED_EDGE('',*,*,#324,.T.);
#246=ORIENTED_EDGE('',*,*,#283,.T.);
#247=ORIENTED_EDGE('',*,*,#323,.F.);
#248=ORIENTED_EDGE('',*,*,#310,.F.);
#249=ORIENTED_EDGE('',*,*,#325,.T.);
#250=VERTEX_POINT('',#517);
#251=VERTEX_POINT('',#518);
#252=VERTEX_POINT('',#520);
#253=VERTEX_POINT('',#522);
#254=VERTEX_POINT('',#525);
#255=VERTEX_POINT('',#527);
#256=VERTEX_POINT('',#529);
#257=VERTEX_POINT('',#531);
#258=VERTEX_POINT('',#533);
#259=VERTEX_POINT('',#534);
#260=VERTEX_POINT('',#536);
#261=VERTEX_POINT('',#538);
#262=VERTEX_POINT('',#540);
#263=VERTEX_POINT('',#542);
#264=VERTEX_POINT('',#544);
#265=VERTEX_POINT('',#546);
#266=VERTEX_POINT('',#550);
#267=VERTEX_POINT('',#552);
#268=VERTEX_POINT('',#556);
#269=VERTEX_POINT('',#558);
#270=VERTEX_POINT('',#562);
#271=VERTEX_POINT('',#563);
#272=VERTEX_POINT('',#568);
#273=VERTEX_POINT('',#569);
#274=VERTEX_POINT('',#571);
#275=VERTEX_POINT('',#573);
#276=VERTEX_POINT('',#576);
#277=VERTEX_POINT('',#578);
#278=VERTEX_POINT('',#580);
#279=VERTEX_POINT('',#582);
#280=VERTEX_POINT('',#585);
#281=VERTEX_POINT('',#587);
#282=EDGE_CURVE('',#250,#251,#326,.T.);
#283=EDGE_CURVE('',#252,#251,#142,.T.);
#284=EDGE_CURVE('',#253,#252,#327,.T.);
#285=EDGE_CURVE('',#250,#253,#143,.T.);
#286=EDGE_CURVE('',#254,#254,#144,.T.);
#287=EDGE_CURVE('',#255,#255,#145,.T.);
#288=EDGE_CURVE('',#256,#256,#146,.T.);
#289=EDGE_CURVE('',#257,#257,#147,.T.);
#290=EDGE_CURVE('',#258,#259,#328,.T.);
#291=EDGE_CURVE('',#258,#260,#148,.T.);
#292=EDGE_CURVE('',#261,#260,#329,.T.);
#293=EDGE_CURVE('',#261,#262,#149,.T.);
#294=EDGE_CURVE('',#263,#262,#330,.T.);
#295=EDGE_CURVE('',#263,#264,#150,.T.);
#296=EDGE_CURVE('',#265,#264,#331,.T.);
#297=EDGE_CURVE('',#265,#259,#151,.T.);
#298=EDGE_CURVE('',#262,#266,#332,.T.);
#299=EDGE_CURVE('',#266,#267,#333,.T.);
#300=EDGE_CURVE('',#267,#263,#334,.T.);
#301=EDGE_CURVE('',#260,#268,#335,.T.);
#302=EDGE_CURVE('',#268,#269,#336,.T.);
#303=EDGE_CURVE('',#269,#261,#337,.T.);
#304=EDGE_CURVE('',#270,#271,#338,.T.);
#305=EDGE_CURVE('',#271,#258,#339,.T.);
#306=EDGE_CURVE('',#259,#270,#340,.T.);
#307=EDGE_CURVE('',#272,#273,#341,.T.);
#308=EDGE_CURVE('',#272,#274,#152,.T.);
#309=EDGE_CURVE('',#274,#275,#342,.T.);
#310=EDGE_CURVE('',#275,#273,#153,.T.);
#311=EDGE_CURVE('',#276,#276,#154,.T.);
#312=EDGE_CURVE('',#277,#277,#155,.T.);
#313=EDGE_CURVE('',#278,#278,#156,.T.);
#314=EDGE_CURVE('',#279,#279,#157,.T.);
#315=EDGE_CURVE('',#268,#271,#158,.T.);
#316=EDGE_CURVE('',#270,#280,#159,.T.);
#317=EDGE_CURVE('',#281,#280,#343,.T.);
#318=EDGE_CURVE('',#281,#267,#160,.T.);
#319=EDGE_CURVE('',#266,#269,#161,.T.);
#320=EDGE_CURVE('',#264,#281,#344,.T.);
#321=EDGE_CURVE('',#280,#265,#345,.T.);
#322=EDGE_CURVE('',#272,#250,#346,.T.);
#323=EDGE_CURVE('',#273,#251,#347,.T.);
#324=EDGE_CURVE('',#274,#253,#348,.T.);
#325=EDGE_CURVE('',#275,#252,#349,.T.);
#326=LINE('',#516,#350);
#327=LINE('',#521,#351);
#328=LINE('',#532,#352);
#329=LINE('',#537,#353);
#330=LINE('',#541,#354);
#331=LINE('',#545,#355);
#332=LINE('',#549,#356);
#333=LINE('',#551,#357);
#334=LINE('',#553,#358);
#335=LINE('',#555,#359);
#336=LINE('',#557,#360);
#337=LINE('',#559,#361);
#338=LINE('',#561,#362);
#339=LINE('',#564,#363);
#340=LINE('',#565,#364);
#341=LINE('',#567,#365);
#342=LINE('',#572,#366);
#343=LINE('',#586,#367);
#344=LINE('',#591,#368);
#345=LINE('',#592,#369);
#346=LINE('',#602,#370);
#347=LINE('',#603,#371);
#348=LINE('',#605,#372);
#349=LINE('',#607,#373);
#350=VECTOR('',#415,1.);
#351=VECTOR('',#418,1.);
#352=VECTOR('',#429,1.);
#353=VECTOR('',#432,1.);
#354=VECTOR('',#435,1.);
#355=VECTOR('',#438,1.);
#356=VECTOR('',#443,1.);
#357=VECTOR('',#444,1.);
#358=VECTOR('',#445,1.);
#359=VECTOR('',#448,1.);
#360=VECTOR('',#449,1.);
#361=VECTOR('',#450,1.);
#362=VECTOR('',#453,1.);
#363=VECTOR('',#454,1.);
#364=VECTOR('',#455,1.);
#365=VECTOR('',#458,1.);
#366=VECTOR('',#461,1.);
#367=VECTOR('',#476,1.);
#368=VECTOR('',#483,1.);
#369=VECTOR('',#484,1.);
#370=VECTOR('',#503,1.);
#371=VECTOR('',#504,1.);
#372=VECTOR('',#507,1.);
#373=VECTOR('',#510,1.);
#374=AXIS2_PLACEMENT_3D('',#515,#413,#414);
#375=AXIS2_PLACEMENT_3D('',#519,#416,#417);
#376=AXIS2_PLACEMENT_3D('',#523,#419,#420);
#377=AXIS2_PLACEMENT_3D('',#524,#421,#422);
#378=AXIS2_PLACEMENT_3D('',#526,#423,#424);
#379=AXIS2_PLACEMENT_3D('',#528,#425,#426);
#380=AXIS2_PLACEMENT_3D('',#530,#427,#428);
#381=AXIS2_PLACEMENT_3D('',#535,#430,#431);
#382=AXIS2_PLACEMENT_3D('',#539,#433,#434);
#383=AXIS2_PLACEMENT_3D('',#543,#436,#437);
#384=AXIS2_PLACEMENT_3D('',#547,#439,#440);
#385=AXIS2_PLACEMENT_3D('',#548,#441,#442);
#386=AXIS2_PLACEMENT_3D('',#554,#446,#447);
#387=AXIS2_PLACEMENT_3D('',#560,#451,#452);
#388=AXIS2_PLACEMENT_3D('',#566,#456,#457);
#389=AXIS2_PLACEMENT_3D('',#570,#459,#460);
#390=AXIS2_PLACEMENT_3D('',#574,#462,#463);
#391=AXIS2_PLACEMENT_3D('',#575,#464,#465);
#392=AXIS2_PLACEMENT_3D('',#577,#466,#467);
#393=AXIS2_PLACEMENT_3D('',#579,#468,#469);
#394=AXIS2_PLACEMENT_3D('',#581,#470,#471);
#395=AXIS2_PLACEMENT_3D('',#583,#472,#473);
#396=AXIS2_PLACEMENT_3D('',#584,#474,#475);
#397=AXIS2_PLACEMENT_3D('',#588,#477,#478);
#398=AXIS2_PLACEMENT_3D('',#589,#479,#480);
#399=AXIS2_PLACEMENT_3D('',#590,#481,#482);
#400=AXIS2_PLACEMENT_3D('',#593,#485,#486);
#401=AXIS2_PLACEMENT_3D('',#594,#487,#488);
#402=AXIS2_PLACEMENT_3D('',#595,#489,#490);
#403=AXIS2_PLACEMENT_3D('',#596,#491,#492);
#404=AXIS2_PLACEMENT_3D('',#597,#493,#494);
#405=AXIS2_PLACEMENT_3D('',#598,#495,#496);
#406=AXIS2_PLACEMENT_3D('',#599,#497,#498);
#407=AXIS2_PLACEMENT_3D('',#600,#499,#500);
#408=AXIS2_PLACEMENT_3D('',#601,#501,#502);
#409=AXIS2_PLACEMENT_3D('',#604,#505,#506);
#410=AXIS2_PLACEMENT_3D('',#606,#508,#509);
#411=AXIS2_PLACEMENT_3D('',#608,#511,#512);
#412=AXIS2_PLACEMENT_3D('',#609,#513,#514);
#413=DIRECTION('',(0.,0.,1.));
#414=DIRECTION('',(1.,0.,0.));
#415=DIRECTION('',(1.,0.,0.));
#416=DIRECTION('',(0.,0.,1.));
#417=DIRECTION('',(1.,0.,0.));
#418=DIRECTION('',(1.,0.,0.));
#419=DIRECTION('',(0.,0.,1.));
#420=DIRECTION('',(1.,0.,0.));
#421=DIRECTION('',(0.,0.,-1.));
#422=DIRECTION('',(2.9909025447876E-16,-1.,0.));
#423=DIRECTION('',(0.,0.,-1.));
#424=DIRECTION('',(1.,0.,0.));
#425=DIRECTION('',(0.,0.,-1.));
#426=DIRECTION('',(0.,1.,0.));
#427=DIRECTION('',(0.,0.,-1.));
#428=DIRECTION('',(-1.,0.,0.));
#429=DIRECTION('',(1.,0.,0.));
#430=DIRECTION('',(0.,0.,1.));
#431=DIRECTION('',(1.,0.,0.));
#432=DIRECTION('',(0.,1.,0.));
#433=DIRECTION('',(0.,0.,1.));
#434=DIRECTION('',(1.,0.,0.));
#435=DIRECTION('',(-1.,0.,0.));
#436=DIRECTION('',(0.,0.,1.));
#437=DIRECTION('',(1.,0.,0.));
#438=DIRECTION('',(0.,-1.,0.));
#439=DIRECTION('',(0.,0.,1.));
#440=DIRECTION('',(1.,0.,0.));
#441=DIRECTION('',(0.,0.,1.));
#442=DIRECTION('',(1.,0.,0.));
#443=DIRECTION('',(0.,0.,-1.));
#444=DIRECTION('',(1.,0.,0.));
#445=DIRECTION('',(0.,0.,1.));
#446=DIRECTION('',(0.,-1.,0.));
#447=DIRECTION('',(0.,0.,-1.));
#448=DIRECTION('',(0.,0.,-1.));
#449=DIRECTION('',(0.,-1.,0.));
#450=DIRECTION('',(0.,0.,1.));
#451=DIRECTION('',(-1.,0.,0.));
#452=DIRECTION('',(0.,0.,1.));
#453=DIRECTION('',(-1.,0.,0.));
#454=DIRECTION('',(0.,0.,1.));
#455=DIRECTION('',(0.,0.,-1.));
#456=DIRECTION('',(0.,1.,0.));
#457=DIRECTION('',(0.,0.,1.));
#458=DIRECTION('',(1.,0.,0.));
#459=DIRECTION('',(0.,0.,1.));
#460=DIRECTION('',(1.,0.,0.));
#461=DIRECTION('',(1.,0.,0.));
#462=DIRECTION('',(0.,0.,1.));
#463=DIRECTION('',(1.,0.,0.));
#464=DIRECTION('',(0.,0.,-1.));
#465=DIRECTION('',(-1.,0.,0.));
#466=DIRECTION('',(0.,0.,-1.));
#467=DIRECTION('',(-1.,0.,0.));
#468=DIRECTION('',(0.,0.,-1.));
#469=DIRECTION('',(-1.,0.,0.));
#470=DIRECTION('',(0.,0.,-1.));
#471=DIRECTION('',(-1.,0.,0.));
#472=DIRECTION('',(0.,0.,-1.));
#473=DIRECTION('',(-1.,0.,0.));
#474=DIRECTION('',(0.,0.,-1.));
#475=DIRECTION('',(-1.,0.,0.));
#476=DIRECTION('',(0.,1.,0.));
#477=DIRECTION('',(0.,0.,-1.));
#478=DIRECTION('',(-1.,0.,0.));
#479=DIRECTION('',(0.,0.,-1.));
#480=DIRECTION('',(-1.,0.,0.));
#481=DIRECTION('',(0.,0.,-1.));
#482=DIRECTION('',(-1.,0.,0.));
#483=DIRECTION('',(0.,0.,-1.));
#484=DIRECTION('',(0.,0.,1.));
#485=DIRECTION('',(1.,0.,0.));
#486=DIRECTION('',(0.,0.,-1.));
#487=DIRECTION('',(0.,0.,1.));
#488=DIRECTION('',(1.,0.,0.));
#489=DIRECTION('',(0.,0.,1.));
#490=DIRECTION('',(1.,0.,0.));
#491=DIRECTION('',(0.,0.,1.));
#492=DIRECTION('',(1.,0.,0.));
#493=DIRECTION('',(0.,0.,1.));
#494=DIRECTION('',(1.,0.,0.));
#495=DIRECTION('',(0.,0.,-1.));
#496=DIRECTION('',(-1.,0.,0.));
#497=DIRECTION('',(0.,0.,-1.));
#498=DIRECTION('',(0.,1.,0.));
#499=DIRECTION('',(0.,0.,-1.));
#500=DIRECTION('',(1.,0.,0.));
#501=DIRECTION('',(0.,0.,-1.));
#502=DIRECTION('',(2.9909025447876E-16,-1.,0.));
#503=DIRECTION('',(0.,0.,1.));
#504=DIRECTION('',(0.,0.,1.));
#505=DIRECTION('',(0.,1.,0.));
#506=DIRECTION('',(0.,0.,1.));
#507=DIRECTION('',(0.,0.,1.));
#508=DIRECTION('',(0.,0.,1.));
#509=DIRECTION('',(1.,0.,0.));
#510=DIRECTION('',(0.,0.,1.));
#511=DIRECTION('',(0.,-1.,0.));
#512=DIRECTION('',(0.,0.,-1.));
#513=DIRECTION('',(0.,0.,1.));
#514=DIRECTION('',(1.,0.,0.));
#515=CARTESIAN_POINT('',(0.,0.,0.));
#516=CARTESIAN_POINT('',(15.,19.,1.5));
#517=CARTESIAN_POINT('',(6.75,19.,1.5));
#518=CARTESIAN_POINT('',(23.25,19.,1.5));
#519=CARTESIAN_POINT('',(23.25,15.,1.5));
#520=CARTESIAN_POINT('',(23.25,11.,1.5));
#521=CARTESIAN_POINT('',(15.,11.,1.5));
#522=CARTESIAN_POINT('',(6.75,11.,1.5));
#523=CARTESIAN_POINT('',(6.75,15.,1.5));
#524=CARTESIAN_POINT('',(5.87500000000001,5.875,1.5));
#525=CARTESIAN_POINT('',(5.87500000000001,2.975,1.5));
#526=CARTESIAN_POINT('',(24.125,5.87500000000001,1.5));
#527=CARTESIAN_POINT('',(27.025,5.87500000000001,1.5));
#528=CARTESIAN_POINT('',(24.125,24.125,1.5));
#529=CARTESIAN_POINT('',(24.125,27.025,1.5));
#530=CARTESIAN_POINT('',(5.875,24.125,1.5));
#531=CARTESIAN_POINT('',(2.975,24.125,1.5));
#532=CARTESIAN_POINT('',(15.,30.,1.5));
#533=CARTESIAN_POINT('',(4.5,30.,1.5));
#534=CARTESIAN_POINT('',(25.5,30.,1.5));
#535=CARTESIAN_POINT('',(4.5,25.5,1.5));
#536=CARTESIAN_POINT('',(0.,25.5,1.5));
#537=CARTESIAN_POINT('',(0.,15.,1.5));
#538=CARTESIAN_POINT('',(0.,4.5,1.5));
#539=CARTESIAN_POINT('',(4.5,4.5,1.5));
#540=CARTESIAN_POINT('',(4.5,0.,1.5));
#541=CARTESIAN_POINT('',(15.,0.,1.5));
#542=CARTESIAN_POINT('',(25.5,0.,1.5));
#543=CARTESIAN_POINT('',(25.5,4.5,1.5));
#544=CARTESIAN_POINT('',(30.,4.5,1.5));
#545=CARTESIAN_POINT('',(30.,15.,1.5));
#546=CARTESIAN_POINT('',(30.,25.5,1.5));
#547=CARTESIAN_POINT('',(25.5,25.5,1.5));
#548=CARTESIAN_POINT('',(15.,15.,1.5));
#549=CARTESIAN_POINT('',(4.5,0.,0.));
#550=CARTESIAN_POINT('',(4.5,0.,0.));
#551=CARTESIAN_POINT('',(15.,0.,0.));
#552=CARTESIAN_POINT('',(25.5,0.,0.));
#553=CARTESIAN_POINT('',(25.5,0.,0.));
#554=CARTESIAN_POINT('',(15.,0.,0.));
#555=CARTESIAN_POINT('',(0.,25.5,0.));
#556=CARTESIAN_POINT('',(0.,25.5,0.));
#557=CARTESIAN_POINT('',(0.,15.,0.));
#558=CARTESIAN_POINT('',(0.,4.5,0.));
#559=CARTESIAN_POINT('',(0.,4.5,0.));
#560=CARTESIAN_POINT('',(0.,15.,0.));
#561=CARTESIAN_POINT('',(15.,30.,0.));
#562=CARTESIAN_POINT('',(25.5,30.,0.));
#563=CARTESIAN_POINT('',(4.5,30.,0.));
#564=CARTESIAN_POINT('',(4.5,30.,0.));
#565=CARTESIAN_POINT('',(25.5,30.,0.));
#566=CARTESIAN_POINT('',(15.,30.,0.));
#567=CARTESIAN_POINT('',(6.75,19.,0.));
#568=CARTESIAN_POINT('',(6.75,19.,0.));
#569=CARTESIAN_POINT('',(23.25,19.,0.));
#570=CARTESIAN_POINT('',(6.75,15.,0.));
#571=CARTESIAN_POINT('',(6.75,11.,0.));
#572=CARTESIAN_POINT('',(6.75,11.,0.));
#573=CARTESIAN_POINT('',(23.25,11.,0.));
#574=CARTESIAN_POINT('',(23.25,15.,0.));
#575=CARTESIAN_POINT('',(5.87500000000001,5.875,0.));
#576=CARTESIAN_POINT('',(2.97500000000001,5.875,0.));
#577=CARTESIAN_POINT('',(24.125,5.87500000000001,0.));
#578=CARTESIAN_POINT('',(21.225,5.87500000000001,0.));
#579=CARTESIAN_POINT('',(24.125,24.125,0.));
#580=CARTESIAN_POINT('',(21.225,24.125,0.));
#581=CARTESIAN_POINT('',(5.875,24.125,0.));
#582=CARTESIAN_POINT('',(2.975,24.125,0.));
#583=CARTESIAN_POINT('',(4.5,25.5,0.));
#584=CARTESIAN_POINT('',(25.5,25.5,0.));
#585=CARTESIAN_POINT('',(30.,25.5,0.));
#586=CARTESIAN_POINT('',(30.,15.,0.));
#587=CARTESIAN_POINT('',(30.,4.5,0.));
#588=CARTESIAN_POINT('',(25.5,4.5,0.));
#589=CARTESIAN_POINT('',(4.5,4.5,0.));
#590=CARTESIAN_POINT('',(15.,15.,0.));
#591=CARTESIAN_POINT('',(30.,4.5,0.));
#592=CARTESIAN_POINT('',(30.,25.5,0.));
#593=CARTESIAN_POINT('',(30.,15.,0.));
#594=CARTESIAN_POINT('',(4.5,25.5,0.));
#595=CARTESIAN_POINT('',(4.5,4.5,0.));
#596=CARTESIAN_POINT('',(25.5,4.5,0.));
#597=CARTESIAN_POINT('',(25.5,25.5,0.));
#598=CARTESIAN_POINT('',(5.875,24.125,1.5));
#599=CARTESIAN_POINT('',(24.125,24.125,1.5));
#600=CARTESIAN_POINT('',(24.125,5.87500000000001,1.5));
#601=CARTESIAN_POINT('',(5.87500000000001,5.875,1.5));
#602=CARTESIAN_POINT('',(6.75,19.,1.5));
#603=CARTESIAN_POINT('',(23.25,19.,1.5));
#604=CARTESIAN_POINT('',(15.,19.,1.5));
#605=CARTESIAN_POINT('',(6.75,11.,1.5));
#606=CARTESIAN_POINT('',(6.75,15.,1.5));
#607=CARTESIAN_POINT('',(23.25,11.,1.5));
#608=CARTESIAN_POINT('',(15.,11.,1.5));
#609=CARTESIAN_POINT('',(23.25,15.,1.5));
#610=MECHANICAL_DESIGN_GEOMETRIC_PRESENTATION_REPRESENTATION('',(#32),#611);
#611=(
GEOMETRIC_REPRESENTATION_CONTEXT(3)
GLOBAL_UNCERTAINTY_ASSIGNED_CONTEXT((#612))
GLOBAL_UNIT_ASSIGNED_CONTEXT((#618,#614,#613))
REPRESENTATION_CONTEXT('16 8090 000 001_01-Dichtung',
'TOP_LEVEL_ASSEMBLY_PART')
);
#612=UNCERTAINTY_MEASURE_WITH_UNIT(LENGTH_MEASURE(2.E-5),#618,
'DISTANCE_ACCURACY_VALUE','Maximum Tolerance applied to model');
#613=(
NAMED_UNIT(*)
SI_UNIT($,.STERADIAN.)
SOLID_ANGLE_UNIT()
);
#614=(
CONVERSION_BASED_UNIT('DEGREE',#616)
NAMED_UNIT(#615)
PLANE_ANGLE_UNIT()
);
#615=DIMENSIONAL_EXPONENTS(0.,0.,0.,0.,0.,0.,0.);
#616=PLANE_ANGLE_MEASURE_WITH_UNIT(PLANE_ANGLE_MEASURE(0.0174532925),#617);
#617=(
NAMED_UNIT(*)
PLANE_ANGLE_UNIT()
SI_UNIT($,.RADIAN.)
);
#618=(
LENGTH_UNIT()
NAMED_UNIT(*)
SI_UNIT(.MILLI.,.METRE.)
);
ENDSEC;
END-ISO-10303-21;
